» » »

America Bass tabs (ver.1)

Artists:  A B C D E F G H I J K L M N O P Q R S T U V W X Y Z # 

America Bass tabs (ver.1)

Theme Songs
Rating:
0/5 (0 votes)

Hard to play? Try these video lessons and learn fast.
                
if you dont know what this song sounds like,
then dont play it.. because you NEED to know
what the song is.

i tabbed this from trumpet so i know its 100%
correct!

~ Let Ring to Fit Song

g-----------------------------------
d-----------------------------------
a-----2------2-3-3-5-3-2---2--------
e-5-5---3--5-------------5---5-3-5~-

g----------------------------------------
d-2-2-2--2-------------------------------
a----------5-3--5-5-5-5--3-2-3-5p3-2---3-
e------------------------------------5---

g-----------------
d-----------------
a-5-7-8-5-3-2-----
e-------------5~--
            
Hard to play? Try these video lessons and learn fast. | Correct




comments powered by Disqus
↑ Back to top | Tablatures and chords are parodies/interpretations of the original songs. You may use it for private study, scholarship, research or language learning purposes only