» » »

Theme Songs, Addams Family Tabs (ver.1)

Artists:  A B C D E F G H I J K L M N O P Q R S T U V W X Y Z # 

Addams Family Tabs (ver.1)

Theme Songs Tabs
 Rating:
4/5 (4 votes)
Addams Family lessons Tabs too difficult? Try these video lessons and learn fast
                (Theme)
E]-----------------------------------------------------------------------------------
B]-----------------------------------------------------------------------------------
G]-----------------------------------------------------------------------------------
D]------------------0---------0----------0-------------------------------------------
A]----0-2-3---0-2-4-----0-2-4-----0-2-4--------0-2-3---------------------------------
E]--3----------------------------------------3---------------------------------------


E]-----0-----------------------------------------0-----------------------------------
B]---1---1------3--------0--3-0---------1------1---1-----3-----1-0-------0-1---------
G]-0-------2-----------3----------3---------0--------2--------------0-2--------------
D]------------3-----------------------1----------------3-----------------------------
A]-----------------------------------------------------------------------------------
E]-----------------------------------------------------------------------------------
            
Submit corrections

comments powered by Disqus
↑ Back to top | Theme Songs Tabs for Addams Family. Lyrics for acoustic guitar and electric guitar. Tablatures and chords are parodies/interpretations of the original songs. You may use it for private study, scholarship, research or language learning purposes only