» » »

Adams Family Bass tabs (ver.1)

Artists:  A B C D E F G H I J K L M N O P Q R S T U V W X Y Z # 

Adams Family Bass tabs (ver.1)

Theme Songs
Rating:
0/5 (0 votes)

Tabs too difficult? Try these video lessons and learn fast.
                THE ADAMS FAMILY

I didn't figure this out, i found a tab a long time ago,
this is tabbed from memory.  sorry i can't give creddit to
the original author

INTRO (among other things)

G|-----------------------------------------------------|
D|-------------------0-----------0-------0-------------|
A|---0-2-3-----0-2-3-------0-2-3---0-2-3-----0-2-3-----|
E|-3-------x-x---------x-x-----------------3-------x-x-|

VERSE

G|-------------------------------------------------------|
D|-----2-------0-------------------2-------0-------------|
A|---3---3-2-0-----3-5-3-----3---3---3-2-0---------0-2-3-|
E|-3-------------5-------5-3---3-------------5-3-3-------|
            
Tabs too difficult? Try these video lessons and learn fast.




comments powered by Disqus
↑ Back to top | Tablatures and chords are parodies/interpretations of the original songs. You may use it for private study, scholarship, research or language learning purposes only