» » »

3 Blind Mice Tabs (ver.1)

Artists:  A B C D E F G H I J K L M N O P Q R S T U V W X Y Z # 

3 Blind Mice Tabs (ver.1)

Theme Songs
Rating:
0/5 (0 votes)

Hard to play? Try these video lessons and learn fast.
                /=slide up

\=slide down

h=hammer on

p=pull-off




|------------------------------|
|------------------------------|
|----4-2/4\2-0--044-2/4\2-0----|
|----4-2/4\2-0--044-2/4\2-0----|
|----4-2/4\2-0--044-2/4\2-0----|
|------------------------------|



|------------------------------|
|------------------------------|
|----07-5/7\5-4--07-05-04------|
|----07-5/7\5-4--07-05-04------|
|----07-5/7\5-4--07-05-04------|
|------------------------------|


|------------------------------------------------------------------|
|----6h7-7p6\4/6-7-----6h7-777p6\4/6-7------6h7-7777p6\4/6---------|
|----6h7-7p6\4/6-7-777-6h7-777p6\4/4-7-7777-6h7-7777p6\4/6-77777---|
|----6h7-7p6\4/6-7-777-6h7-777p6\4/6-7-7777-6h7-7777p6\4/6-77777---|
|------------------777-----------------7777----------------77777---|
|------------------------------------------------------------------|



|-----------------------------|
|-----------------------------|
|----5-4-2/4\2-0--19----------|
|----5-4-2/4\2-0--19----------|
|----5-4-2/4\2-0--19----------|
|-----------------------------|




tell me what you think
            
Hard to play? Try these video lessons and learn fast. | Correct




comments powered by Disqus
↑ Back to top | Tablatures and chords are parodies/interpretations of the original songs. You may use it for private study, scholarship, research or language learning purposes only