» » »

2 Guys And A Girl Bass tabs (ver.1)

Artists:  A B C D E F G H I J K L M N O P Q R S T U V W X Y Z # 

2 Guys And A Girl Bass tabs (ver.1)

Theme Songs
Rating:
0/5 (0 votes)

Hard to play? Try these video lessons and learn fast.
                
G|-----------------------------|
D|-----------------------------|
A|--------3-3------------------|
E|--3-3-0-----3-3--0-0-1-1-2-2-|

G|-----------------------------|
D|-----------------------------|
A|--------3-3------------------|
E|--3-3-0-----3-3--------------|
            
Hard to play? Try these video lessons and learn fast. | Correct




comments powered by Disqus
↑ Back to top | Tablatures and chords are parodies/interpretations of the original songs. You may use it for private study, scholarship, research or language learning purposes only