» » »

Theme Songs, 2 Guys A Girl And A Pizza Place Bass tabs (ver.1)

Artists:  A B C D E F G H I J K L M N O P Q R S T U V W X Y Z # 

2 Guys A Girl And A Pizza Place Bass tabs (ver.1)

Theme Songs Tabs
Rating:
0/5 (0 votes)
2 Guys A Girl And A Pizza Place lessons Tabs too difficult? Try these video lessons and learn fast
                2 Guys, A Girl, and A Pizza Place
Theme Song
Bass

G|-----------------------------|-----------------------------------
D|-----------------------------|------------------------------------
A|--------3-3------------------|------------------------------------
E|--3-3-0-----3-3--0-0-1-1-2-2-|------------------------------------

2 Guys, A Girl, and A Pizza Place
Theme Song
Bass

G|-----------------------------|--------------------
D|-----------------------------|---------------------
A|--------3-3------------------|---------------------
E|--3-3-0-----3-3--0-0-1-1-2-2-|--------------------
            
Submit corrections

comments powered by Disqus
↑ Back to top | Theme Songs Bass for 2 Guys A Girl And A Pizza Place. Lyrics for acoustic guitar and electric guitar. Tablatures and chords are parodies/interpretations of the original songs. You may use it for private study, scholarship, research or language learning purposes only