» » »

Them, Gloria Bass tabs (ver.2)

Artists:  A B C D E F G H I J K L M N O P Q R S T U V W X Y Z # 

Gloria Bass tabs (ver.2)

Them Tabs
 Rating:
4.2/5 (5 votes)
Gloria lessons Tabs too difficult? Try these video lessons and learn fast
1
                Gloria
Them
Written by Van Morrison; released as a B-side to "Baby Please Don't Go".

Intro:
G|------- ------- ------- -------|------- ------- ------- -------|
D|-------------------------------|-------------------------------|
A|7-------7---7---5--------------|7-----------7---5--------------|
E|------------------------5---5--|------------------------5---5--|



G|------- ------- ------- -------|------- ------- ------- -------|
D|-------------------------------|-------------------------------|
A|7-------7---7---5--------------|7-----------7---5--------------|
E|------------------------5---5--|------------------------5---5--|
                                              Like to tell you 'bout my

Verse:
G|------- ------- ------- -------|------- ------- ------- -------|
D|-------------------------------|-------------------------------|
A|7-------7---7---5--------------|7-----------7---5--------------|
E|------------------------5------|------------------------5---5--|
  ba- by,                                     you know she comes around,


G|------- ------- ------- -------|------- ------- ------- -------|
D|-------------------------------|-------------------------------|
A|7-------7---7---5--------------|7-----------7---5--------------|
E|------------------------5------|------------------------5------|
                                              She's about five feet four


G|------- ------- ------- -------|------- ------- ------- -------|
D|-------------------------------|-------------------------------|
A|7-------7---7---5--------------|7-----------7---5--------------|
E|------------------------5---5--|------------------------5---5--|
                                          up from her head to the ground.


G|------- ------- ------- -------|------- ------- ------- -------|
D|-------------------------------|-------------------------------|
A|7-----------7---5--------------|7-----------7---5--------------|
E|------------------------5---5--|------------------------5------|
                                              You know she comes around here


G|------- ------- ------- -------|------- ------- ------- -------|
D|-------------------------------|-------------------------------|
A|7-----------7---5--------------|7-----------7---5--------------|
E|------------------------5------|------------------------5------|
                                          ah, just about midnight,


G|------- ------- ------- -------|------- ------- ------- -------|
D|-------------------------------|-------------------------------|
A|7-----------7---5--------------|7-----------7---5--------------|
E|------------------------5------|------------------------5------|
                                              She'll make me feel so good,


G|------- ------- ------- -------|------- ------- ------- -------|
D|-------------------------------|-------------------------------|
A|7-----------7---5--------------|7-----------7---5--------------|
E|------------------------5------|------------------------5------|
  Lord,                                       she'll make me feel all


G|------- ------- ------- -------|------- ------- ------- -------|
D|-------------------------------|-------------------------------|
A|7-----------7---5--------------|7-----------7---5--------------|
E|------------------------5------|------------------------5------|
  right.                                          And her name is G


G|------- ------- ------- -------|------- ------- ------- -------|
D|-------------------------------|-------------------------------|
A|7-----------7---5--------------|7-----------7---5--------------|
E|------------------------5------|------------------------5------|
                              L                               O


G|------- ------- ------- -------|------- ------- ------- -------|
D|-------------------------------|-------------------------------|
A|7-----------7---5--------------|7-----------7---5--------------|
E|------------------------5------|------------------------5------|
                              R                               I,


G|------- ------- ------- -------|------- ------- ------- -------|
D|-------------------------------|-------------------------------|
A|7-----------7---5--------------|7-----------7---5--------------|
E|------------------------5---5--|------------------------5---5--|
                                      G   L       O   R   I   A,

Refrain:
G|------- ------- ------- -------|------- ------- ------- -------|
D|-------------------------------|-------------------------------|
A|7-----------7---5--------------|7-------7---7---5--------------|
E|------------------------5---5--|------------------------5---5--|
                                      G   L       O   R   I   A,
 (Glo         -           ri- a)

G|------- ------- ------- -------|------- ------- ------- -------|
D|-------------------------------|-------------------------------|
A|7-------7---7---5--------------|7-------7---7---5--------------|
E|------------------------5---5--|------------------------5---5--|
                                      I'm gonna shout it all night,
 (Glo         -           ri- a)

G|------- ------- ------- -------|------- ------- ------- -------|
D|-------------------------------|-------------------------------|
A|7-------7---7---5--------------|7-------7---7---5--------------|
E|------------------------5---5--|------------------------5---5--|
                                      I'm gonna shout it every day,
 (Glo         -           ri- a)

G|------- ------- ------- -------|------- ------- ------- -------|
D|-------------------------------|-------------------------------|
A|7-------7---7---5--------------|7-------7---7---5--------------|
E|------------------------5---5--|------------------------5---5--|
                          Yeah,   yeah, yeah, yeah, yeah, yeah!
 (Glo         -           ri- a)

G|------- ------- ------- -------|------- ------- ------- -------|
D|-------------------------------|-------------------------------|
A|7-------7---7---5--------------|7-------7---7---5--------------|
E|------------------------5---5--|------------------------5---5--|


Break (solo):
G|------- ------- ------- -------|------- ------- ------- -------|
D|-------------------------------|-------------------------------|
A|7-------7---7---5--------------|7----7-----7----5--------------|
E|---------------------5-----5---|---------------------5-----5---|



G|------- ------- ------- -------|------- ------- ------- -------|
D|-------------------------------|-------------------------------|
A|7----7-----7----5--------------|7----7-----7----5--------------|
E|---------------------5-----5---|---------------------5-----5---|



G|------- ------- ------- -------|------- ------- ------- -------|
D|-------------------------------|-------------------------------|
A|7-------7---7---5--------------|7----7-----7----5--------------|
E|---------------------5-----5---|---------------------5-----5---|



G|------- ------- ------- -------|------- ------- ------- -------|
D|-------------------------------|-------------------------------|
A|7---------------5--------------|7-----------7---5--------------|
E|------------------------5------|------------------------5------|



G|------- ------- ------- -------|------- ------- ------- -------|
D|-------------------------------|-------------------------------|
A|7-----------7---5--------------|7-----------7---5--------------|
E|------------------------5---5--|------------------------5------|



G|------- ------- ------- -------|------- ------- ------- -------|
D|-------------------------------|-------------------------------|
A|7-------7-------5--------------|7-------7-------5--------------|
E|------------------------5------|------------------------5------|
                                                      She comes around

Verse:
G|------- ------- ------- -------|------- ------- ------- -------|
D|-------------------------------|-------------------------------|
A|7-------7-------5--------------|7-------7-------5--------------|
E|------------------------5------|------------------------5------|
  here                                        just about midnight,


G|------- ------- ------- -------|------- ------- ------- -------|
D|-------------------------------|-------------------------------|
A|7-------7-------5--------------|7-------7-------5--------------|
E|------------------------5------|------------------------5------|
                                              She'll make me feel so


G|------- ------- ------- -------|------- ------- ------- -------|
D|-------------------------------|-------------------------------|
A|7-------7-------5--------------|7-------7-------5--------------|
E|------------------------5------|------------------------5------|
  good, Lord,                             oh, I said she'll make me feel all


G|------- ------- ------- -------|------- ------- ------- -------|
D|-------------------------------|-------------------------------|
A|7-------7-------5--------------|7-------7-------5--------------|
E|------------------------5------|------------------------5------|
  right.                                      Comes walking down my


G|------- ------- ------- -------|------- ------- ------- -------|
D|-------------------------------|-------------------------------|
A|7-------7-------5--------------|7-------7-------5--------------|
E|------------------------5------|------------------------5------|
  street,                                     well, she'll come to my house,


G|------- ------- ------- -------|------- ------- ------- -------|
D|-------------------------------|-------------------------------|
A|7-------7-------5--------------|7-------7-------5--------------|
E|------------------------5------|------------------------5------|
                                          She'll knock upon my door,


G|------- ------- ------- -------|------- ------- ------- -------|
D|-------------------------------|-------------------------------|
A|7-------7-------5--------------|7-------7-------5--------------|
E|------------------------5------|------------------------5------|
                                          then she'll come to my room,


G|------- ------- ------- -------|------- ------- ------- -------|
D|-------------------------------|-------------------------------|
A|7-------7-------5--------------|7-------7-------5--------------|
E|------------------------5------|------------------------5------|
                                      Yeah, she'll make me feel all right.


G|------- ------- ------- -------|------- ------- ------- -------|
D|-------------------------------|-------------------------------|
A|7-------7-------5--------------|7-------7-------5--------------|
E|------------------------5------|------------------------5------|
                                      G   L       O   R   I   A,

Refrain:
G|------- ------- ------- -------|------- ------- ------- -------|
D|-------------------------------|-------------------------------|
A|7-------7---7---5--------------|7-------7---7---5--------------|
E|------------------------5---5--|------------------------5---5--|
                                      G   L       O   R   I   A,
 (Glo         -           ri- a)

G|------- ------- ------- -------|------- ------- ------- -------|
D|-------------------------------|-------------------------------|
A|7-------7---7---5--------------|7-------7---7---5--------------|
E|------------------------5---5--|------------------------5---5--|
                                      I'm gonna shout it all night,
 (Glo         -           ri- a)

G|------- ------- ------- -------|------- ------- ------- -------|
D|-------------------------------|-------------------------------|
A|7-------7---7---5--------------|7-------7---7---5--------------|
E|------------------------5---5--|------------------------5---5--|
                                      I'm gonna shout it every day,
 (Glo         -           ri- a)

G|------- ------- ------- -------|------- ------- ------- -------|
D|-------------------------------|-------------------------------|
A|7-------7---7---5--------------|7-------7---7---5--------------|
E|------------------------5---5--|------------------------5---5--|
                            Yeah, yeah, yeah, yeah, yeah, so  good,
 (Glo         -           ri- a)

G|------- ------- ------- -------|------- ------- ------- -------|
D|-------------------------------|-------------------------------|
A|7-------7---7---5--------------|7-------7---7---5--------------|
E|------------------------5---5--|------------------------5---5--|
                          all right,                  just so good,
 (Glo         -           ri- a)

G|------- ------- ------- -------|------- ------- ------- -------|
D|-------------------------------|-------------------------------|
A|7-------7---7---5--------------|7-------7---7---5--------------|
E|------------------------5---5--|------------------------5---5--|
                      oh, all right,          yeah!
 (Glo         -           ri- a)
Outro:
G|------- ------- ------- -------|------- ------- ------- -------|
D|-------------------------------|-------------------------------|
A|7-------7---7---5--------------|7-------7---7---5--------------|
E|------------------------5---5--|------------------------5---5--|



G|------- ------- ------- -------|------- ------- ------- -------|
D|-------------------------------|-------------------------------|
A|7-------7---7---5--------------|7-------7---7---5--------------|
E|---------------------5-----5---|---------------------5-----5---|



G|------- ------- ------- -------|------- ------- ------- -------|
D|-------------------------------|-------------------------------|
A|7-------7---7---5--------------|7------------------------------|
E|---------------------5-----5---|-------------------------------|

Please e-mail me for any corrections, or write a comment.
            
Submit corrections

comments powered by Disqus
↑ Back to top | Them Bass for Gloria. Lyrics for acoustic guitar and electric guitar. 1 Tablatures and chords are parodies/interpretations of the original songs. You may use it for private study, scholarship, research or language learning purposes only