» » »

Them, Gloria Tabs (ver.1)

Artists:  A B C D E F G H I J K L M N O P Q R S T U V W X Y Z # 

Gloria Tabs (ver.1)

Them Tabs
 Rating:
4/5 (4 votes)
Gloria lessons Tabs too difficult? Try these video lessons and learn fast
                Gtr I (E A D G B E) - 'Untitled'
Gtr II (E A D G B E) - 'Untitled'


    Q=127
   4/4
    Gtr I
     E  E E E E E E  E    +E  E E E E E E E 17x
||---0--0-0-0-2-0-0--0--|-(0)-0-0-0-2-0-0-0--||
||o--0--0-0-0-3-0-2--0--|-(0)-0-0-0-3-0-2-0-o||
||---1----1-0-2-0-2--1--|-(1)---1-0-2-0-2-0--||
||--(2)-------------(2)-|-(2)----------------||
||o---------------------|-------------------o||
||----------------------|--------------------||


   E  E E E E E E  E    +E  E E E E E E E
|--0--0-0-0-2-0-0--0--|-(0)-0-0-0-2-0-0-x/-|
|--0--0-0-0-3-0-2--0--|-(0)-0-0-0-3-0-2-x/-|
|--1----1-0-2-0-2--1--|-(1)---1-0-2-0-2----|
|-(2)-------------(2)-|-(2)----------------|
|---------------------|--------------------|
|---------------------|--------------------|


     E S  e S  e  E S  e S  e  6x
||--12---12---12-10----9---10--||-|
||o-12---12---12-10---10---10-o||-|
||-----------------------------||-|
||-----------------------------||-|
||o---------------------------o||-|
||-----------------------------||-|
|
|      W                       6x
||-----------------------------||-|
||o---------------------------o||-|
||-----------------------------||-|
||-----------------------------||-|
||o---------------------------o||-|
||-----------------------------||-|


    Q.   Q.   a E E  4x     W                 19x
||--4----2----0-0-0--||-||--4------------------||-|
||o-5----3----0h2-0-o||-||o-5-----------------o||-|
||--4----2----0h2-1--||-||--4------------------||-|
||-------------------||-||---------------------||-|
||o-----------------o||-||o-------------------o||-|
||-------------------||-||---------------------||-|
|
|                           Gtr II
|   W                4x     Q.   T T T T Q Q  19x
||-------------------||-||---------------------||-|
||o-----------------o||-||o-5----3h5p3h5p3----o||-|
||-------------------||-||------------------2--||-|
||-------------------||-||---------------------||-|
||o-----------------o||-||o-------------------o||-|
||-------------------||-||---------------------||-|


    Gtr I
     E  E E E E E E  E    +E  E E E E E E E 18x
||---0--0-0-0-2-0-0--0--|-(0)-0-0-0-2-0-0-0--||
||o--0--0-0-0-3-0-2--0--|-(0)-0-0-0-3-0-2-0-o||
||---1----1-0-2-0-2--1--|-(1)---1-0-2-0-2-0--||
||--(2)-------------(2)-|-(2)----------------||
||o---------------------|-------------------o||
||----------------------|--------------------||


       E S  e S  e  E S  e S  e  3x W
|-||--12---12---12-10----9---10--||-0----|
|-||o-12---12---12-10---10---10-o||-0----|
|-||-----------------------------||-1----|
|-||-----------------------------||------|
|-||o---------------------------o||------|
|-||-----------------------------||------|




--------------------------------------------------------------------------------


Duration Legend
---------------
W - whole; H - half; Q - quarter; E - 8th; S - 16th; T - 32nd; X - 64th; a - acciaccatura
+ - note tied to previous; . - note dotted; .. - note double dotted
Uncapitalized letters represent notes that are staccato (1/2 duration)
Irregular groupings are notated above the duration line
Duration letters will always appear directly above the note/fret number it represents the
duration for.  Duration letters with no fret number below them represent rests.  Multi-
bar rests are notated in the form Wxn, where n is the number of bars to rest for.  Low
melody durations appear below the staff

Tablature Legend
----------------
 h   - hammer-on
 p   - pull-off
 b   - bend
 pb  - pre-bend
 r   - bend release (if no number after the r, then release immediately)
 /\  - slide into or out of (from/to "nowhere")
 s   - legato slide
 S   - shift slide
 - natural harmonic
[n]  - artificial harmonic
n(n) - tapped harmonic
 ~   - vibrato
 tr  - trill
 T   - tap
 TP  - trem. picking
 PM  - palm muting
\n/  - tremolo bar dip; n = amount to dip
 \n  - tremolo bar down
 n/  - tremolo bar up
/n\  - tremolo bar inverted dip
 =   - hold bend; also acts as connecting device for hammers/pulls
 <> - volume swell (louder/softer)
 x   - on rhythm slash represents muted slash
 o   - on rhythm slash represents single note slash

Misc Legend
-----------
 |  - bar
||  - double bar
||o - repeat start
o|| - repeat end
*|  - double bar (ending)
 :  - bar (freetime)
 $  - Segno
 &  - Coda
Tempo markers -  = BPM(8/16=s8/s16), where s8 = swing 8ths, s16 = swing 16ths
            
Submit corrections

comments powered by Disqus
↑ Back to top | Them Tabs for Gloria. Lyrics for acoustic guitar and electric guitar. Tablatures and chords are parodies/interpretations of the original songs. You may use it for private study, scholarship, research or language learning purposes only