» » »

The Kooks, Kids Tabs (ver.1)

Artists:  A B C D E F G H I J K L M N O P Q R S T U V W X Y Z # 

Kids Tabs (ver.1)

The Kooks Tabs
 Rating:
4/5 (4 votes)
Kids lessons Tabs too difficult? Try these video lessons and learn fast
                and intro for Kids (Cover) by The Kooks:

Intro:

e|---------------2--4-2--------------5--7--9--------9--7--10--9-7---5-------|
H|---------2--5----------5----------5---------------------------------------|
G|---2--4--------------------------6----------------------------------------|
D|--------------------------------7-----------------------------------------|
A|--------------------------------------------------------------------------|
E|--------------------------------------------------------------------------|

e|-------------------------5-----5------------------------------------------|
H|--5-5s7---9--7----5--------6----------------------------------------------|
G|-----------------------------6-----------6-6-6---6-6-6---4--4--2----------|
D|--------------------------------------------------------------------------|
A|--------------------------------------------------------------------------|
E|--------------------------------------------------------------------------|

Chords:
(important is that the chords often are splitted, means sometime you only play the bass 
and the other time only the high ones .. this changes through the whole song .. just 
;D

   F#m  D   A   E
e|--2---2---5---4---|
H|--2---3---5---5---|
G|--2---2---6---4---|
D|--4---0---7---6---|
A|--4-------7---7---|
E|--2-------5---4---|

F#m          D
You were a child
                 A               E
Crawling on your knees toward him
F#m                D
  Making mamma so proud
A                         E
But your voice is too loud
F#m                D            A  E
  We like to watch you laughing
F#m                  D
Picking insects of plants
A                           E
  No time to think of consequences

And so on..

Hope you like it .. I will try to tab out the solo und chords for hugh ,too.
I am not ready with it yet but it will come !!!

So have fun with it :D bye
            
Submit corrections

comments powered by Disqus
↑ Back to top | The Kooks Tabs for Kids. Lyrics for acoustic guitar and electric guitar. Tablatures and chords are parodies/interpretations of the original songs. You may use it for private study, scholarship, research or language learning purposes only