» » »

The Kooks, She Moves In Her Own Way Tabs (ver.1)

Artists:  A B C D E F G H I J K L M N O P Q R S T U V W X Y Z # 

She Moves In Her Own Way Tabs (ver.1)

The Kooks Tabs
 Rating:
4/5 (4 votes)
She Moves In Her Own Way lessons Tabs too difficult? Try these video lessons and learn fast
                The Kooks - She Moves In Her Own Way
(First Tab - Hope its not THAT bad)

Standard Tuning

Intro Guitar 1

     1   2   3   4   5   6   7

e|---3-----------------------55--|
B|---3-----------------------55--|
G|---4----(strum)------------55--|
D|---5-----------------------77--|    x2
A|---5-----------------------77--|
E|---3-----------------------55--|

Intro Guitar 2

    1   2   3   4   5   6   7       1   2   3   4   5   6   7        1
e|------------------------------|-------7-------------------8--10|---3-|
B|------------------------------|--0s3----------------3-5-----7--|-----|
G|------------------------------|--------------------------------|-----|
D|------------------------------|--------------------------------|-----|
A|------------------------------|--------------------------------|-----|
E|------------------------------|--------------------------------|-----|


Verse

    1   2   3   4   5   6   7       1   2   3   4   5   6   7
e|--3-------------5--------------|--5---------------7-------7---|
B|--3-------------7--------------|--5---------------7-------7---|
G|--4-------------5--------------|--5---------------7-------7---|
D|--5-------------7--------------|--7---------------9-----------| x3
A|--5-------------5--------------|--7---------------9-----------|
E|--3-------------5--------------|--5---------------7-----------|

  End of Third Time (2nd Guitar)

        5   6   7
     -----------7-5p3-3-|
     -------3-------|---|
     ---------------|---|
     ---------------|---|
     ---------------|---|
     ---------------|---|

    1   2   3   4   5   6   7       1   2   3   4   5   6   7
e|--3-------------5--------------|--5---------------7-------7---|
B|--3-------------7--------------|--5---------------7-------7---|
G|--4-------------5--------------|--5---------------7-------7---|
D|--5-------------7--------------|--7---------------9-----------| x2
A|--5-------------5--------------|--7---------------9-----------|
E|--3-------------5--------------|--5---------------7-----------|

The End of First/Second Time...(2nd Guitar)

     7       1   2   3   4   5   6   7
e|-------|-3---------2p3---3-----3---3-3-|---Pick Between--2--3--and-----|
B|---3---|-------3--------------------3-3|---------------------------3---|
G|-------|-------------------------------|-------------------------------|
D|-------|-------------------------------|-------------------------------|
A|-------|-------------------------------|-------------------------------|
E|-------|-------------------------------|-------------------------------|

Chorus

    1   2   3   4   5   6   7       1   2   3   4   5   6   7
e|--3-------------5-------------|---5---------------7-----------|
B|--3-------------7-------------|---5---------------7-----------|
G|--4-------------5-------------|---5---------------7-----------|
D|--5-------------7-------------|---7---------------9-----------| x2
A|--5-------------5-------------|---7---------------9-----------|
E|--3-------------5-------------|---5---------------7-----------|

End Of Chorus (2nd Guitar)

        5   6   7
     ---------------|-3-|
     -------3p5---3-5---|
     ---------------|---|
     ---------------|---|
     ---------------|---|
     ---------------|---|

Verse

Chorus

Bridge  \  not inc'd
Solo    /

Chorus x2

        --3--
        --3--
        --4--
end on  --5--
        --5--
        --3--
            
Submit corrections

comments powered by Disqus
↑ Back to top | The Kooks Tabs for She Moves In Her Own Way. Lyrics for acoustic guitar and electric guitar. Tablatures and chords are parodies/interpretations of the original songs. You may use it for private study, scholarship, research or language learning purposes only