» » »

The Fray, Heartless Tabs (ver.2)

Artists:  A B C D E F G H I J K L M N O P Q R S T U V W X Y Z # 

Heartless Tabs (ver.2)

The Fray Tabs
Rating:
5/5 (7 votes)
Heartless lessons Tabs too difficult? Try these video lessons and learn fast
                This is the song Heartless by Kanye West covered by The Fray...hope you enjoy!
Check out the video to help you if you need it...

Capo 4

Chorus/Verse
       Am               G/C              F                Em
---------------- ---------------- ---------------- -----------------|
---1-------1---- ---1-------1---- ---1-------1---- ---1-------1-----|
-------2-------2 -------0-------0 -------2-------2 -------0-------0-|
-2---2---2---2-- -2---2---2---2-- -3---3---3---3-- -2---2---2---2---|
0-0-0-0-0-0-0-0- ---------------- ---------------- -----------------|
---------------- 3-3-3-3-3-3-3-3- 1-1-1-1-1-1-1-1- 0-0-0-0-0-0-0-0--|

Bridge
           Am             G/B     This is the part that goes "talkin talkin
---------------------------------|  talkin talk, baby lets just knock it off"
-1-1-1-1-1-1-1-1-1-1-1-1-1-1-1-1-|
-2-2-2-2-2-2-2-2-2-2-2-2-0-0-0-0-|
-2-2-2-2-2-2-2-2-2-2-2-2-2-2-2-2-|
0-0-0-0-0-0-0-0-0-0-0-0----------|
------------------------3-3-3-3--|

Then it continues on to the chorus.

Thats about it pretty easy once you get the hang of the tempo. Again check out the video 
you need help with tempo/timing/etc.
            
Submit corrections

comments powered by Disqus
↑ Back to top | The Fray Tabs for Heartless. Lyrics for acoustic guitar and electric guitar. Tablatures and chords are parodies/interpretations of the original songs. You may use it for private study, scholarship, research or language learning purposes only