» » »

The Fray, Heartless Tabs (ver.1)

Artists:  A B C D E F G H I J K L M N O P Q R S T U V W X Y Z # 

Heartless Tabs (ver.1)

The Fray Tabs
 Rating:
4/5 (14 votes)
Heartless lessons Tabs too difficult? Try these video lessons and learn fast
                The Fray
Standard Tuning
--This is just an alternative way of playing it,
you wont need a capo or anything.
But if you prefer the original way, there's a great

   C#m
e|-----0---------0------|
B|----------0---------0-|
G|----------------------|
D|--11---11---11---11---|
A|----------------------|
E|-9--9-9--9-9--9-9--9--|

   B
e|----0-------0-----|
B|--------0-------0-|
G|------------------|
D|--9---9---9---9---|
A|------------------|
E|-7-7-7-7-7-7-7-7--|

   A
e|----0-------0-----|
B|--------0-------0-|
G|------------------|
D|--7---7---7---7---|
A|------------------|
E|-5-5-5-5-5-5-5-5--|

   G#m
e|----0-------0-----|
B|--------0-------0-|
G|------------------|
D|--6---6---6---6---|
A|------------------|
E|-4-4-4-4-4-4-4-4--|

Third verse (talkin talkin talkin talk...)

   C#m               G#m
e|-----------------------|
B|-----------------------|
G|-9--9--9--9--9--9--4-4-|
D|-11-11-11-11-11-11-6-6-|
A|-11-11-11-11-11-11-6-6-|
E|-9--9--9--9--9--9--4-4-|


------------------------------------------------------------


If you want to strum the chords:

   C#m  B  A  G#m
e|-0----0--0--0--|
B|-0----0--0--0--|
G|-9----8--6--4--|
D|-11---9--7--6--|
A|-11---9--7--6--|
E|-9----7--5--4--|
            
Submit corrections

comments powered by Disqus
↑ Back to top | The Fray Tabs for Heartless. Lyrics for acoustic guitar and electric guitar. Tablatures and chords are parodies/interpretations of the original songs. You may use it for private study, scholarship, research or language learning purposes only