>
 >
All At Once

All At Once Bass Tabs

The Fray - All At Once chords, tabs, tablatures, lyrics

Guitar lessons | Add/correct | Request | Top 50 tabs Artists:  A B C D E F G H I J K L M N O P Q R S T U V W X Y Z 0-9

All At Once Bass Tabs – The Fray

CD, Sheet music, Poster

Do you like All At Once? Share with your friends now
Bass TabsBass Tabs v2ChordsChords v2Chords v3Chords v4Chords v5TabsUkulele
-------------------------------------------------------------------------------
-------------------------------------------------------------------------------


Tuning: Standard EADG


Intro/Verse 1st time: 0:00-0:15
            2nd time: 0:15-0:28
                                            x2
G|-----------|-------------|-----------------|
D|-9---------|-------------|-----------------|  
A|-----------|-7-------7-sl|11---9-----------|       
E|-----------|-------------|---------7----7sl| 2nd time no "sl" 
 
Pre-Chorus 0:29-0:36

G|------------|-------------|--------------|----------------|
D|------------|-------------|--------------|----------------|
A|-11----11-11|-7----7-7----|--------------|--------------9-|
E|------------|-------------|-7-----7-7----|-7-----7-7bnd---|

 0:36-0:43

G|------------|-------------|--------------|----------------|
D|------------|-------------|-9-----9-9----|----------------|
A|-11----11-11|-7----7-7----|--------------|-9-9-9-9-9------|
E|------------|-------------|--------------|-----------7-7-7|

Chorus 0:44-0:56

G|----------------|---------------|----------------|---------------|
D|--9--9--9-------|-9--9--9-------|--9--9--9-------|-9--9--9-------|
A|----------------|---------------|----------------|---------------|
E|----------7-7-7-|---------7-7-7-|----------7-7-7-|---------7-7-7-|

G|---------------|--------------|----------------|
D|---------------|--------------|----------------|
A|--9--9-----9-9-|-7--7-----7-7-|-11--11---------|
E|---------------|--------------|----------------|

Guitar Break 00:56-1:00

Verse  1:00-1:28
      
                                                                          
G|----------------|---------------|------------|-----------|----------------|
D|-9--------------|---------------|------------|-----------|----------------|        
A|------------9-5-|-7-------7-9-7-|-11---------|-9---------|------------9-5-|     
E|----------7-----|---------------|------------|-----------|-7--------7-----| 

G|----------------|---------------|------------|-----------|----------------|
D|-9--------------|---------------|------------|-----------|----------------|        
A|------------9-5-|-7-------7-9-7-|-11---------|-9---------|----------------|     
E|----------7-----|---------------|------------|-----------|-7--------------|

Pre-Chorus  1:28-1:35

G|------------|-------------|--------------|----------------|
D|------------|-------------|--------------|----------------|
A|-11----11-11|-7----7-7----|--------------|--------------9-|
E|------------|-------------|-7-----7-7----|-7-----7-7bnd---|

 
 1:35-1:42

G|------------|-------------|--------------|------------------|
D|------------|-------------|-9-----9-9----|------------------|
A|-11----11-11|-7----7-7----|--------------|-9-9-9-9-9--------|
E|------------|-------------|--------------|-----------7-7-7--|

Chorus  1:42-1:55


G|----------------|---------------|----------------|---------------|
D|--9--9--9-------|-9--9--9-------|--9--9--9-------|-9--9--9-------|
A|----------------|---------------|----------------|---------------|
E|----------7-7-7-|---------7-7-7-|----------7-7-7-|---------7-7-7-|

G|---------------|--------------|----------------|
D|---------------|--------------|----------------|
A|--9--9-----9-9-|-7--7-----7-7-|-11--11---------|
E|---------------|--------------|----------------|

 1:55-2:08

G|----------------|---------------|----------------|---------------|
D|--9--9--9-------|-9--9--9-------|--9--9--9-------|-9--9--9-------|
A|----------------|---------------|----------------|---------------|
E|----------7-7-7-|---------7-7-7-|----------7-7-7-|---------7-7-7-|

G|---------------|--------------|----------------|
D|---------------|--------------|----------------|
A|--9--9-----9-9-|-7--7-----7-7-|-11--11---------|
E|---------------|--------------|----------------|

 Singing and instrumental break 2:08-2:29

Pre-chorus 2:29-2:43

Played slightly faster 
                                                                         x2
G|------------------------------------------------------------------------|
D|------------------------9-9-9-9-----------------------------------------|
A|-11-11-11-11-11-11-11-9---------7-7-7-7-9-9-9-9-9-9-9-9-9-9-9-9-9-9-9-9-|
E|------------------------------------------------------------------------|
I know this isn't exactly right but it seems to go well with the song

Chorus  1st time: 2:43-2:56
        2nd time: 2:56-3:08

G|----------------|---------------|----------------|---------------|
D|--9--9--9-------|-9--9--9-------|--9--9--9-------|-9--9--9-------|
A|----------------|---------------|----------------|---------------|
E|----------7-7-7-|---------7-7-7-|----------7-7-7-|---------7-7-7-|
                                   Whole chorus x2          
G|---------------|--------------|----------------|
D|---------------|--------------|----------------|
A|--9--9-----9-9-|-7--7-----7-7-|-11--11---------|
E|---------------|--------------|----------------|

Outro 3:08-3:47
                                                                           x3
G|-------------------------|-----------------|-----------------|------------------|
D|-------------------------|-----------------|-9-9-9-9-9-9-9-9-|-9-9-9-9-9-9-9-9--|
A|-11-11-11-11-11-11-11-11-|-7-7-7-7-7-7-7-7-|-----------------|------------------|
E|-------------------------|-----------------|-----------------|------------------|

G|-------------------------|-----------------|-----------------|------------------|
D|-------------------------|-----------------|-9-9-9-9-9-9-9-9-|-9--let-ring------|
A|-11-11-11-11-11-11-11-11-|-7-7-7-7-7-7-7-7-|-----------------|------------------|
E|-------------------------|-----------------|-----------------|------------------|

This is my first tab and I am only thirteen years old so I apologise for any mistakes.

Enjoy.





Comments


Popular The Fray tabs & chords
Enough For Now Chords
Heartless Intro Chords
Oceans Away Chords
The Fighter Chords
Ungodly Hour Chords
Syndicate Intro 1 Tabs
You Found Me 3 Tabs
48 To Go Ukulele
Be Still Ukulele
Vienna Ukulele


Song lyrics



↑ Back to top | Tablatures and chords are parodies/interpretations of the original songs. You may use it for private study, scholarship, research or language learning purposes only
© 2014 AZChords.com Contact us | Privacy policy | DMCA | Add/correct tabs | Request tabs | Top 50 tabs