» » »

All At Once Bass tabs (ver.2)

Artists:  A B C D E F G H I J K L M N O P Q R S T U V W X Y Z # 

All At Once Bass tabs (ver.2)

The Fray
Rating:
5/5 (2 votes)

Tabs too difficult? Try these video lessons and learn fast.
                Intro/Verse 1st time: 0:00-0:15
            2nd time: 0:15-0:28
                                           
G|-----------|-------------|-----------------|
D|-9---------|-------------|-----------------|  x2
A|-----------|-7-------7-sl|11---9-----------|       
E|-----------|-------------|---------7----7sl| 2nd time no "sl" 
 
Pre-Chorus 0:29-0:36

G|------------|-------------|--------------|----------------|
D|------------|-------------|--------------|----------------|
A|-11----11-11|-7----7-7----|--------------|--------------9-|
E|------------|-------------|-7-----7-7----|-7-----7-7bnd---|

           0:36-0:43

G|------------|-------------|--------------|----------------|
D|------------|-------------|-9-----9-9----|-9-----9-9------|
A|-11----11-11|-7----7-7----|--------------|----------------|
E|------------|-------------|--------------|----------------|

Chorus 0:44-0:56
            
Tabs too difficult? Try these video lessons and learn fast.


comments powered by Disqus
↑ Back to top | Tablatures and chords are parodies/interpretations of the original songs. You may use it for private study, scholarship, research or language learning purposes only