» » »

The Dodos, Fools Tabs (ver.3)

Artists:  A B C D E F G H I J K L M N O P Q R S T U V W X Y Z # 

Fools Tabs (ver.3)

The Dodos Tabs
 Rating:
4.6/5 (10 votes)
Fools lessons Tabs too difficult? Try these video lessons and learn fast
                -------------------------------------------------------------------------------
                             SONG NAME - Band Name
-------------------------------------------------------------------------------

This is my first attempt at tabbing a song, so bare with me.  
It won't give minute detail, but if you are interested in playing this song, 
I'm sure you have the skills to get the gist of it from my tab.

Tuning: Open G (D G D G B D)
Capo on 6th fret

I tend to strum all six strings most of the time, muting the other strings with left 
hand.  
This is down up strumming for the most part.  It's very fast.

Verse and Chorus:
Sectioned off by chord changes

e|---------------------------------------------------------------------------|
B|---------------------------------------------------------------------------|
G|---------------------------------------------------------------------------|
D|--4-4-4-4-4-4---4-4-4-4-4-4---4-4-4-4-4-4----------------------------------|
A|--2-2-2-2-2-2---2-2-2-2-2-2---2-2-2-2-2-2----------------------------------|
E|--0-0-0-0-0-0---0-0-0-0-0-0---0-0-0-0-0-0----------------------------------|

e|---------------------------------------------------------------------------|
B|---------------------------------------------------------------------------|
G|---------------------------------------------------------------------------|
D|--5-5-5-5-5-5--------4-4-4-4-4-4---4-4-4-4-4-4---4-4-4-4-4-4---------------|
A|--x-x-x-x-x-x--------x-x-x-x-x-x---x-x-x-x-x-x---x-x-x-x-x-x---------------|
E|--5-5-5-5-5-5--------4-4-4-4-4-4---4-4-4-4-4-4---4-4-4-4-4-4---------------|

e|---------------------------------------------------------------------------|
B|---------------------------------------------------------------------------|
G|---------------------------------------------------------------------------|
D|--4-4-4-4-4-4--------------------------------------------------------------|
A|--x-x-x-x-x-x--------------------------------------------------------------|
E|--2-2-2-2-2-2--------------------------------------------------------------|
Back to the beginning, this just repeats throughout most of the song.

Funky Part:
e|----7-7-7-7------7-7-7-7------7-7-7-7----x-0-x-0---------------------------|
B|----7-7-7-7------7-7-7-7------7-7-7-7----x-3-x-3---------------------------|
G|----7-7-7-7------7-7-7-7------7-7-7-7----x-4-x-4---------------------------|
D|-----------------------------------------x---x-----------------------------|
A|-----------------------------------------x---x-----------------------------|
E|--0-----------0------------0-------------x---x-----------------------------|

e|---------------------------------------------------------------------------|
B|---------------------------------------------------------------------------|
G|-----7-7-7-7------7-7-7-7-------7-7-7-7-----5-5-5-\-6-6-6------------------|
D|-----x-x-x-x------x-x-x-x-------x-x-x-x-----x-x-x-\-x-x-x------------------|
A|-----7-7-7-7------7-7-7-7-------7-7-7-7-----5-5-5-\-6-6-6------------------|
E|--0------------0-------------0---------------------------------------------|
This section repeats
Bridge:

e|---------------------------------------------------------------------------|
B|---------------------------------------------------------------------------|
G|---------------------------------------------------------------------------|
D|---5-5-5-5-5-5---5-5-5-5-5-5--------4-4-4-4-4-4---4-4-4-4-4-4--------------|
A|---x-x-x-x-x-x---x-x-x-x-x-x--------2-2-2-2-2-2---2-2-2-2-2-2--------------|
E|---5-5-5-5-5-5---5-5-5-5-5-5--------0-0-0-0-0-0---0-0-0-0-0-0--------------|
    ^-------------------------^
   Play tice, first time through

e|---------------------------------------------------------------------------|
B|---------------------------------------------------------------------------|
G|---------------------------------------------------------------------------|
D|---4-4-4-4-4-4---4-4-4-4-4-4---4-4-4-4-4-4---4-4-4-4-4-4-------------------|
A|---x-x-x-x-x-x---x-x-x-x-x-x---x-x-x-x-x-x---x-x-x-x-x-x-------------------|
E|---2-2-2-2-2-2---2-2-2-2-2-2---2-2-2-2-2-2---2-2-2-2-2-2-------------------|


Outro:
e|---------------------------------------------------------------------------|
B|---------------------------------------------------------------------------|
G|---------------------------------------------------------------------------|
D|--4-4-4-4-4-4--------------------------------------------------------------|
A|--2-2-2-2-2-2--------------------------------------------------------------|
E|--0-0-0-0-0-0--------------------------------------------------------------|


| /  slide up
| \  slide down
| h  hammer-on
| p  pull-off
| ~  vibrato
| +  harmonic
| x  Mute note
===============================================================================
            
Submit corrections

comments powered by Disqus
↑ Back to top | The Dodos Tabs for Fools. Lyrics for acoustic guitar and electric guitar. Tablatures and chords are parodies/interpretations of the original songs. You may use it for private study, scholarship, research or language learning purposes only