>
 >
Fools 1

Fools 1 Guitar Tabs

The Dodos - Fools 1 chords, tabs, tablatures, lyrics

Guitar lessons | Add/correct | Request | Top 50 tabs Artists:  A B C D E F G H I J K L M N O P Q R S T U V W X Y Z 0-9

Fools 1 Guitar Tabs – The Dodos

CD, Sheet music, Poster

Do you like Fools 1? Share with your friends now
TabsTabs v2Tabs v3Tabs v4
Originally tabbed originally by: WoopZhoop

I've changed the tuning to open G, which I think is more correct and also easier to play.

Tuning: DGDGAd

(Capo 6th fret)


Verse/Chorus:

 d|-0-0-0-0-0-0-0-0-0-0-0-0-0-0-0-0-0-0-0-0-0-0-0-0-|
 A|-0-0-0-0-0-0-0-0-0-0-0-0-0-0-0-0-0-0-0-0-0-0-0-0-|
 G|-2-2-2-2-2-2-2-2-2-2-2-2-2-2-2-2-2-2-2-2-2-2-2-2-|
 D|-4-4-4-4-4-4-4-4-4-4-4-4-4-4-4-4-4-4-5-5-5-5-5-5-|
 G|-2-2-2-2-2-2-2-2-2-2-2-2-2-2-2-2-2-2-x-x-x-x-x-x-|
 D|-0-0-0-0-0-0-0-0-0-0-0-0-0-0-0-0-0-0-5-5-5-5-5-5-|
 

 d|-0-0-0-0-0-0-0-0-0-0-0-0-0-0-0-0-0-0-0-0-0-0-0-0-|
 A|-0-0-0-0-0-0-0-0-0-0-0-0-0-0-0-0-0-0-0-0-0-0-0-0-|
 G|-2-2-2-2-2-2-2-2-2-2-2-2-2-2-2-2-2-2-x-x-x-x-x-x-|
 D|-4-4-4-4-4-4-4-4-4-4-4-4-4-4-4-4-4-4-4-4-4-4-4-4-|
 G|-x-x-x-x-x-x-x-x-x-x-x-x-x-x-x-x-x-x-x-x-x-x-x-x-|
 D|-4-4-4-4-4-4-4-4-4-4-4-4-4-4-4-4-4-4-2-2-2-2-2-2-|



This thing:
 d|-----------------------------------------x-0-0-x-0-0-|
 A|-----9--9--9--9------9-9-9-9-----9-9-9-9-x-x-x-x-x-x-|
 G|-----x--x--x--x------x-x-x-x-----x-x-x-x-x-7-7-x-7-7-|
 D|-----7--7--7--7------7-7-7-7-----7-7-7-7-x-9-9-x-9-9-|
 G|-----11-11-11-11-----9-9-9-9-----9-9-9-9-x-----------|
 D|-0-0-------------0-0---------0-0---------------------|

 
 d|-------------------------------------------------|
 A|-------------------------------------------------|
 G|-----7-7-7-7-----7-7-7-7-----7-7-7-7-5-5-5-6-6-6-|
 D|-----4-4-4-4-----4-4-4-4-----4-4-4-4-x-x-x-x-x-x-|
 G|-----7-7-7-7-----7-7-7-7-----7-7-7-7-5-5-5-6-6-6-|
 D|-0-0---------0-0---------0-0---------------------|


Transition:
 d|-------------------------------------------------|
 A|-------------------------------------------------|
 G|-4-4-4-4-4-4-4-4-4-4-4-4-4-4-4-4-4-4-4-4-4-4-4-4-|
 D|-5-5-5-5-5-5-5-5-5-5-5-5-5-5-5-5-5-5-5-5-5-5-5-5-|
 G|-4-4-4-4-4-4-4-4-4-4-4-4-4-4-4-4-4-4-4-4-4-4-4-4-|
 D|-------------------------------------------------|
 

Other part (4 times):
 d|-0-0-0-0-0-0-0-0-0-0-0-0-0-0-0-0-0-0-0-0-0-0-0-0-|   
 A|-0-0-0-0-0-0-0-0-0-0-0-0-0-0-0-0-0-0-0-0-0-0-0-0-|  
 G|-2-2-2-2-2-2-2-2-2-2-2-2-2-2-2-2-2-2-2-2-2-2-2-2-|  
 D|-5-5-5-5-5-5-5-5-5-5-5-5-4-4-4-4-4-4-4-4-4-4-4-4-|  
 G|-x-x-x-x-x-x-x-x-x-x-x-x-2-2-2-2-2-2-2-2-2-2-2-2-|  
 D|-5-5-5-5-5-5-5-5-5-5-5-5-0-0-0-0-0-0-0-0-0-0-0-0-|  
   "And the stance that we take isn't..."
                                                   
 d|-0-0-0-0-0-0-0-0-0-0-0-0-0-0-0-0-0-0-0-0-0-0-0-0-|  
 A|-0-0-0-0-0-0-0-0-0-0-0-0-0-0-0-0-0-0-0-0-0-0-0-0-|  
 G|-0-0-0-0-0-0-0-0-0-0-0-0-0-0-0-0-0-0-0-0-0-0-0-0-|  
 D|-2-2-2-2-2-2-2-2-2-2-2-2-2-2-2-2-2-2-2-2-2-2-2-2-|  
 G|-x-x-x-x-x-x-x-x-x-x-x-x-x-x-x-x-x-x-x-x-x-x-x-x-|  
 D|-2-2-2-2-2-2-2-2-2-2-2-2-2-2-2-2-2-2-2-2-2-2-2-2-|  
   "...much to bear"


Quiet part (4 times):
 d|-0-0-0-0-0-0-0-0-0-0-0-0-0-0-0-0-0-0-0-0-0-0-0-0-|
 A|-0-0-0-0-0-0-0-0-0-0-0-0-0-0-0-0-0-0-0-0-0-0-0-0-|
 G|-2-2-2-2-2-2-2-2-2-2-2-2-2-2-2-2-2-2-2-2-2-2-2-2-|
 D|-4-4-4-4-4-4-4-4-4-4-4-4-4-4-4-4-4-4-4-4-4-4-4-4-| 
 G|-2-2-2-2-2-2-2-2-2-2-2-2-2-2-2-2-2-2-2-2-2-2-2-2-|
 D|-0-0-0-0-0-0-0-0-0-0-0-0-0-0-0-0-0-0-0-0-0-0-0-0-|
   "I've been, I've been silent"


Ending (2 times):
 d|-0-0-0-0-0-0-0-0-0-0-0-0-0-0-0-0-0-0-0-0-0-0-0-0-|  
 A|-0-0-0-0-0-0-0-0-0-0-0-0-0-0-0-0-0-0-0-0-0-0-0-0-|  
 G|-x-x-x-x-x-x-x-x-x-x-x-x-2-2-2-2-2-2-2-2-2-2-2-2-|  
 D|-4-4-4-4-4-4-4-4-4-4-4-4-5-5-5-5-5-5-5-5-5-5-5-5-|  
 G|-x-x-x-x-x-x-x-x-x-x-x-x-x-x-x-x-x-x-x-x-x-x-x-x-|   
 D|-2-2-2-2-2-2-2-2-2-2-2-2-5-5-5-5-5-5-5-5-5-5-5-5-|  

 d|-0-0-0-0-0-0-0-0-0-0-0-0-0-0-0-0-0-0-0-0-0-0-0-0-|  
 A|-0-0-0-0-0-0-0-0-0-0-0-0-0-0-0-0-0-0-0-0-0-0-0-0-|  
 G|-2-2-2-2-2-2-2-2-2-2-2-2-2-2-2-2-2-2-2-2-2-2-2-2-|  
 D|-4-4-4-4-4-4-4-4-4-4-4-4-4-4-4-4-4-4-4-4-4-4-4-4-|    
 G|-2-2-2-2-2-2-2-2-2-2-2-2-2-2-2-2-2-2-2-2-2-2-2-2-|  
 D|-0-0-0-0-0-0-0-0-0-0-0-0-0-0-0-0-0-0-0-0-0-0-0-0-|





Comments


Popular The Dodos tabs & chords
Fables Chords
Two Medicines Chords
Black Night 1 Tabs
Coals Tabs
Fools 3 Tabs
God Tabs
Joes Waltz Tabs
Trades And Tariffs Tabs
Walking 1 Tabs
Undeclared Ukulele


Song lyrics



↑ Back to top | Tablatures and chords are parodies/interpretations of the original songs. You may use it for private study, scholarship, research or language learning purposes only
© 2014 AZChords.com Contact us | Privacy policy | DMCA | Add/correct tabs | Request tabs | Top 50 tabs