>
 >
Ashley

Ashley Guitar Tabs

The Dodos - Ashley chords, tabs, tablatures, lyrics

Guitar lessons | Add/correct | Request | Top 50 tabs Artists:  A B C D E F G H I J K L M N O P Q R S T U V W X Y Z 0-9

Ashley Guitar Tabs – The Dodos

CD, Sheet music, Poster

Do you like Ashley? Share with your friends now
ChordsTabsUkulele
-------------------------------------------------------------------------------
-------------------------------------------------------------------------------

Tuning: EADGBe 

Strumming is a bit difficult to figure out but this is the main idea in hand positioning. 

Intro

e|---------------------------------------------------------------------------|
B|---------0---------------0--------------0--------------0-------------------|
G|--4---------4---2------------2---0----------0----0--------0----------------|
D|-----0-------------0----------------0--------------0-----------------------|
A|---------------------------------------------------------------------------|
E|--3---0----0----3-----0----0-----3----0---0------3--0----0-----------------|

e|-------0--------------0----------------------------------------------------|
B|--1--------1---1----------1---------0----------------0---------------------|
G|----2------------2------------0----------0----0-----------0----------------|
D|-(2)----------(2)---------------2----------------2-------------------------|
A|--0---0--0-----0---0----0----(2)-------------------------------------------|
E|------------------------------0---0---0-------0---0-----0----------------|

e|---------0---------------0------------------0---------------0--------------|
B|--5----------5---8-----------8----7-------------7---0-------------0--------|
G|----0---------------0----------------0-----------------0-------------------|
D|---------------------------------------------------------------------------|
A|-(7)------------(7)--------------(7)---------------(7)---------------------|
E|--8-----8---8----8----8----8------8------8----8-----8-----8-----8----------|

e|-----------0----------------0----------------0----------------0------------|
B|--3-----------3----1-------------1---0------------0---0------------0-------|
G|-----0----------------0-----------------0----------------0-----------------|
D|---------------------------------------------------------------------------|
A|-(2)--------------(2)---------------(2)--------------(2)-------------------|
E|--3-----3---3------3------3-----3----3-----3---3------3----3----3----------|

Verse

e|---------------------------------------------------------------------------|
B|---------0---------------0--------------0--------------0-------------------|
G|--4---------4---2------------2---0----------0----0--------0----------------|
D|-----0-------------0----------------0--------------0-----------------------|
A|---------------------------------------------------------------------------|
E|--3---0----0----3-----0----0-----3----0---0------3--0----0----------------|

e|-------0--------------0----------------------------------------------------|
B|--1--------1---1----------1---------0----------------0---------------------|
G|----2------------2------------0----------0----0-----------0----------------|
D|-(2)----------(2)---------------2----------------2-------------------------|
A|--0---0--0-----0---0----0----(2)-------------------------------------------|
E|------------------------------0---0---0-------0---0-----0----------------|

e|---------0---------------0------------------0---------------0--------------|
B|--5----------5---8-----------8----7-------------7---0-------------0--------|
G|----0---------------0----------------0-----------------0-------------------|
D|---------------------------------------------------------------------------|
A|-(7)------------(7)--------------(7)---------------(7)---------------------|
E|--8-----8---8----8----8----8------8------8----8-----8-----8-----8----------|

e|-----------0----------------0----------------0----------------0------------|
B|--3-----------3----1-------------1---0------------0---0------------0-------|
G|-----0----------------0-----------------0----------------0-----------------|
D|---------------------------------------------------------------------------|
A|-(2)--------------(2)---------------(2)--------------(2)-------------------|
E|--3-----3---3------3------3-----3----3-----3---3------3----3----3----------|
x2

Take my hand and lead me up
To Dolores
And leave me out in the street, I guess
It was for us

Chorus

e|---------------------------------------------0-------------------0---------|
B|---------0-----------------0----------1-----------1---1---------------1----|
G|--0----------0----0--------------0-------2----------------2----------------|
D|-----2----------------2--------------(2)-------------(2)-------------------|
A|-(2)-------------(2)------------------0----0----0-----0-------0-----0------|
E|--0----0----0-----0------0----0--------------------------------------------|

e|---------0---------------0------------------0---------------0--------------|
B|--5----------5---8-----------8----7-------------7---0-------------0--------|
G|----0---------------0----------------0-----------------0-------------------|
D|---------------------------------------------------------------------------|
A|-(7)------------(7)--------------(7)---------------(7)---------------------|
E|--8-----8---8----8----8----8------8------8----8-----8-----8-----8----------|
x3

e|-----------0----------------0----------------0----------------0------------|
B|--3-----------3----1-------------1---0------------0---0------------0-------|
G|-----0----------------0-----------------0----------------0-----------------|
D|---------------------------------------------------------------------------|
A|-(2)--------------(2)---------------(2)--------------(2)-------------------|
E|--3-----3---3------3------3-----3----3-----3---3------3----3----3----------|
x2

What are you thinking of, Ashley?
Who are you dreaming of, Ashley?
You come down from above, Ashley


Verse

e|---------------------------------------------------------------------------|
B|---------0---------------0--------------0--------------0-------------------|
G|--4---------4---2------------2---0----------0----0--------0----------------|
D|-----0-------------0----------------0--------------0-----------------------|
A|---------------------------------------------------------------------------|
E|--3---0----0----3-----0----0-----3----0---0------3--0----0----------------|

e|-------0--------------0----------------------------------------------------|
B|--1--------1---1----------1---------0----------------0---------------------|
G|----2------------2------------0----------0----0-----------0----------------|
D|-(2)----------(2)---------------2----------------2-------------------------|
A|--0---0--0-----0---0----0----(2)-------------------------------------------|
E|------------------------------0---0---0-------0---0-----0----------------|

e|---------0---------------0------------------0---------------0--------------|
B|--5----------5---8-----------8----7-------------7---0-------------0--------|
G|----0---------------0----------------0-----------------0-------------------|
D|---------------------------------------------------------------------------|
A|-(7)------------(7)--------------(7)---------------(7)---------------------|
E|--8-----8---8----8----8----8------8------8----8-----8-----8-----8----------|

e|-----------0----------------0----------------0----------------0------------|
B|--3-----------3----1-------------1---0------------0---0------------0-------|
G|-----0----------------0-----------------0----------------0-----------------|
D|---------------------------------------------------------------------------|
A|-(2)--------------(2)---------------(2)--------------(2)-------------------|
E|--3-----3---3------3------3-----3----3-----3---3------3----3----3----------|
x2

You let me sleep and let me breathe
Where I need to
And fool my heart to think that I
Might have had you

Chorus

e|---------------------------------------------0-------------------0---------|
B|---------0-----------------0----------1-----------1---1---------------1----|
G|--0----------0----0--------------0-------2----------------2----------------|
D|-----2----------------2--------------(2)-------------(2)-------------------|
A|-(2)-------------(2)------------------0----0----0-----0-------0-----0------|
E|--0----0----0-----0------0----0--------------------------------------------|

e|---------0---------------0------------------0---------------0--------------|
B|--5----------5---8-----------8----7-------------7---0-------------0--------|
G|----0---------------0----------------0-----------------0-------------------|
D|---------------------------------------------------------------------------|
A|-(7)------------(7)--------------(7)---------------(7)---------------------|
E|--8-----8---8----8----8----8------8------8----8-----8-----8-----8----------|
x3

e|-----------0----------------0----------------0----------------0------------|
B|--3-----------3----1-------------1---0------------0---0------------0-------|
G|-----0----------------0-----------------0----------------0-----------------|
D|---------------------------------------------------------------------------|
A|-(2)--------------(2)---------------(2)--------------(2)-------------------|
E|--3-----3---3------3------3-----3----3-----3---3------3----3----3----------|
x2

What are you thinking of, Ashley?
Who are you dreaming of, Ashley?
You come down from above, Ashley

Break

e|---------------------------------------------------------------------------|
B|---------0----------------0----------------0--------------0----------------|
G|----0---------0------0---------0------0---------0----0---------0-----------|
D|-10---------------9----------------7---------------------------------------|
A|-12---12---12----10----10---10-----9----9-----9---9-----9----9-------------|
E|---------------------------------------------------------------------------|

e|---------------------------------------------------------------------------|
B|---------0----------------0--------------0--------0-------0-------0--------|
G|----0---------0------0---------0------0--------0-------0-------0-----------|
D|--5---------------7----------------5--------9-------7-------5--------------|
A|--7----7---7------9-----9---9------7-------10-------9-------7--------------|
E|---------------------------------------------------------------------------|
x2

e|---------------------------------------------------------------------------|
B|---------0----------------0----------------0--------------0----------------|
G|----0---------0------0---------0------0---------0----0---------0-----------|
D|-10---------------9----------------2---------------------------------------|
A|-12---12---12----10----10---10-----3----3-----3---3-----3----3-------------|
E|---------------------------------------------------------------------------|

e|---------------------------------------------------------------------------|
B|---------0----------------0--------------0--------0-------0-------0--------|
G|----0---------0------0---------0------0--------0-------0-------0-----------|
D|--5---------------7----------------5--------9-------7-------5--------------|
A|--7----7---7------9-----9---9------7-------10-------9-------7--------------|
E|---------------------------------------------------------------------------|

e|---------------------------------------------------------------------------|
B|---------0----------------0----------------0--------------0----------------|
G|----0---------0------0---------0------0---------0----0---------0-----------|
D|-10---------------9----------------7---------------------------------------|
A|-12---12---12----10----10---10-----9----9-----9---9-----9----9-------------|
E|---------------------------------------------------------------------------|

e|---------------------------------------------------------------------------|
B|---------0----------------0--------------0--------0-------0-------0--------|
G|----0---------0------0---------0------0--------0-------0-------0-----------|
D|--5---------------7----------------5--------9-------7-------5--------------|
A|--7----7---7------9-----9---9------7-------10-------9-------7--------------|
E|---------------------------------------------------------------------------|

e|---------------------------------------------------------------------------|
B|----------0----------------0----------------0--------0---------------------|
G|-----0--------0------2----------2------0--------0--------0-----------------|
D|-(2)-------------(2)---------------(2)-------------------------------------|
A|--3----3----3-----3-----3----3------3-----3---3---3----3-------------------|
E|---------------------------------------------------------------------------|

e|---------------------------------------------------------------------------|
B|----------0---------------0-------------0-------0-------0------0-----------|
G|-----0--------0-------2------2-------0-------4-------2-------0-------------|
D|-(2)--------------(2)-------------2--------2------2-------2----------------|
A|--0----0----0------0----0---0-----0--------0------0-------0----------------|
E|---------------------------------------------------------------------------|
x2

Next Part (I don't know what to call it...)

e|---------------------------------------------------------------------------|
B|---------------------------------------------------------------------------|
G|--------0---------------0--------------0-----------------0-----------------|
D|----2--------2-----2--------2------2---------2-----2----------2------------|
A|--2--------------0---------------2-----------------------------------------|
E|--0---0----0-----2----2---2------0---0-----0----0-----0-----0--------------|

e|---------------------------------------------------------------------------|
B|---------------------------------------------------------------------------|
G|--------0---------------0--------------0-----------------0-----------------|
D|----2--------2-----2--------2------2---------2-----2----------2------------|
A|--2--------------0---------------2-----------------------------------------|
E|--0---0----0-----2----2---2------0---0-----0----0-----0-----0--------------|

e|---------------------------------------------------------------------------|
B|-----------0---------------0---------------0----------------0--------------|
G|-----0---------0------2---------2------0---------0----0----------0---------|
D|--2----------------2----------------2--------------------------------------|
A|--3-----3----3-----3----3-----3-----3----3----3----3-----3----3------------|
E|---------------------------------------------------------------------------|

e|---------------------------------------------------------------------------|
B|----------0---------------0---------------0---------------0----------------|
G|-----0--------0-------2------2-------0---------0----0-----------0----------|
D|--2----------------2--------------2----------------------------------------|
A|--0----0----0------0----0---0-----0----0-----0---0-----0-----0-------------|
E|---------------------------------------------------------------------------|
x2

Take this hammer-handed heart
And pull it off my back
Heavy on my shoulders
Stranded in the open sea
I wait there hoping that
You'll come back to see me


C G Am Em C

Em   Am     C
A-A-A-A-A-A-Ashley

e|------------------0--------------------------------------------------------|
B|------------------0--------------------------------------------------------|
G|------------------0--------------------------------------------------------|
D|------------------0--------------------------------------------------------|
A|------------------2--------------------------------------------------------|
E|--3-3-3-3-3-3-3-3-3--------------------------------------------------------|

| /  slide up
| \  slide down
| h  hammer-on
| p  pull-off
| ~  vibrato
| +  harmonic
| x  Mute note
===============================================================================





Comments


Popular The Dodos tabs & chords
Fools 2 Tabs
Neighbors Tabs
Notes Intro Tabs
The Ocean Tabs
The Season 2 Tabs
Trades And Tariffs Tabs
Walking Tabs
Ashley Ukulele
Fables Ukulele
Horny Hippies Ukulele


Song lyrics



↑ Back to top | Tablatures and chords are parodies/interpretations of the original songs. You may use it for private study, scholarship, research or language learning purposes only
© 2014 AZChords.com Contact us | Privacy policy | DMCA | Add/correct tabs | Request tabs | Top 50 tabs