>
 >
Ashley

Ashley Chords

The Dodos - Ashley chords, tabs, tablatures, lyrics

Guitar lessons | Add/correct | Request | Top 50 tabs Artists:  A B C D E F G H I J K L M N O P Q R S T U V W X Y Z 0-9

Ashley Chords – The Dodos

CD, Sheet music, Poster

Do you like Ashley? Share with your friends now
ChordsTabsUkulele
Intro: 

G     Am     E     C     G

G                Am       E
Take my hand and lead me up
   C          G
To Dolores
                        Am           E
And leave me out in the street, I guess
       C          G
It was for us

Chorus:

Am                      E   C
  What are you thinking of, Ashley?
Am                     E   C
  Who are you dreaming of, Ashley?
Am                     E    C        G
  You come down from above, Ashley

G                    Am         E
You let me sleep and let me breathe
        C          G
Where I need to
                     Am          E
And fool my heart to think that I
           C         G
Might have had you

Chorus:

Am                      E   C
  What are you thinking of, Ashley?
Am                     E   C
  Who are you dreaming of, Ashley?
Am                     E    C        G
  You come down from above, Ashley

Bridge 1:
(I don't know the chords for the bridge but I'm sure they're easy to figure out)

e|-----------------------------------------|
B|-----------------------------------------|
G|--99-77-6666-44-66-4-764-----------------|
D|--77-55-4444-22-44-2-542-----------------| (2x)
A|-----------------------------------------|
E|-----------------------------------------|

e|-----------------------------------------|
B|-----------------------------------------|
G|--99-77------44-66-4-764-----------------|
D|--77-55-5555-22-44-2-542-----------------|
A|--------3333-----------------------------|
E|-----------------------------------------|

e|-----------------------------------------|
B|-----------------------------------------|
G|--99-77-6666-44-66-4-764-----------------|
D|--77-55-4444-22-44-2-542-----------------|
A|-----------------------------------------|
E|-----------------------------------------|

C     Am     C      Am
   

E    F#   E      E  F#  E
Take this hammer-handed heart
C
And pull it off my back
Am
Heavy on my shoulders
E    F#  E     E F#  E      
Stranded in the open sea
             Am
I wait there hoping that
C
You'll come back to see me

Bridge 2:

C     G     Am     E    C  (3x)

Outro:

E         Am          C
A-A-A-A-A-A-A-A-A-A-A Ashley, 
E         Am          C
A-A-A-A-A-A-A-A-A-A-A Ashley,
E         Am          C   G     G     G     G     G
A-A-A-A-A-A-A-A-A-A-A Ashley,





Comments


Popular The Dodos tabs & chords
Beards Tabs
Black Night 1 Tabs
Elves Tabs
Fables Tabs
Fools 1 Tabs
Fools 2 Tabs
Lily Tabs
Men Tabs
Horny Hippies Ukulele
Undeclared Ukulele


Song lyrics



↑ Back to top | Tablatures and chords are parodies/interpretations of the original songs. You may use it for private study, scholarship, research or language learning purposes only
© 2014 AZChords.com Contact us | Privacy policy | DMCA | Add/correct tabs | Request tabs | Top 50 tabs