» » »

Run For Your Life Tabs (ver.1)

Artists:  A B C D E F G H I J K L M N O P Q R S T U V W X Y Z # 

Run For Your Life Tabs (ver.1)

The Creepshow
Rating:
5/5 (1 vote)

Hard to play? Try these video lessons and learn fast.
                Band:   The Creepshow
Tuning: Standard

Intro.

 |P.M.............................................|
e|------------------------------------------------|
b|------------------------------------------------|
g|------------------------------------------------|
D|-----444444499998888888666666666669999888888----|    2x
A|6666-222222277776666666444444444447777666666----|
E|4444--------------------------------------------|


e|----------------|
b|----------------|
g|--4-6-4-7-4-6-4-| x3
D|--4-6-4-7-4-6-4-|
A|6-2-4-2-5-2-4-2-|
E|4---------------|

e|---|
b|---|
g|---|
D|6--|
A|6--|
E|4--|


e|----------------|
b|----------------|
g|--4-6-4-7-4-6-4-| x3
D|--4-6-4-7-4-6-4-|
A|6-2-4-2-5-2-4-2-|
E|4---------------|

e|----------------------|
b|----------------------|
g|-4-4-4-4-7-7-6-7-6----|
D|-4-4-4-4-7-7-6-7-6-6--|
A|-2-2-2-2-5-5-4-5-4-6--|
E|-------------------4--|


Ab
So awake it'll sting your eyes rot your bones

and leave you paralyzed
Db                         E                  Eb
This demon's got you she destroys you line by line

Ab
Like a train on a one way track keeps on goin'

never coming back
E                   Eb
Oh No, no, no don't wait until tomorrow


Db                             Ab
Your night is vanished by the devil
Db                                Eb
Your lies and empty promises are never gonna make it right


               Ab
RUN FOR YOUR LIFE - Nobodies gonna wake you up
               B
RUN FOR YOUR LIFE - Nobodies gonna save you now
Db                            Eb
He feeds on broken dreams and haunts you through the night
               Ab
RUN FOR YOUR LIFE - Nobodies gonna wake you up
               B
RUN FOR YOUR LIFE - Nobodies gonna save you now
Db                               Eb
This trains a hell bound ride so hold your pillow tight

e|----------------|
b|----------------|
g|--4-6-4-7-4-6-4-| x3
D|--4-6-4-7-4-6-4-|
A|6-2-4-2-5-2-4-2-|
E|4---------------|

e|----------------------|
b|----------------------|
g|-4-4-4-4-7-7-6-7-6----|
D|-4-4-4-4-7-7-6-7-6-6--|
A|-2-2-2-2-5-5-4-5-4-6--|
E|-------------------4--|


Ab
Took your soul and left nothing behind down

to the depths of your wilted cries
Db                       E                    Eb
This demon's got you she destroys you line by line
Ab
Stop now and you'll have to face it fleet footed baby

and it's you she's chasin'
E                   Eb
Oh No, no, no don't wait until tomorrow


Db                                Ab
She'll drag you down and make you tremble
Db                                    Eb
You can't escape this sufferin' there ain't no place to hide


               Ab
RUN FOR YOUR LIFE - Nobodies gonna wake you up
               B
RUN FOR YOUR LIFE - Nobodies gonna save you now
Db                            Eb
He feeds on broken dreams and haunts you through the night
               Ab
RUN FOR YOUR LIFE - Nobodies gonna wake you up
               B
RUN FOR YOUR LIFE - Nobodies gonna save you now
Db                               Eb
This trains a hell bound ride so hold your pillow tight


E
Your never ending self destruction is
B                    Gb
gonna leave you with nothing
E
There's still time to save yourself
B                   Gb
and turn this into something
E
We built this up don't tear it down
B                   Gb
we need you in this game
E
Cause once you're gone things are never
             Eb
gonna be the same

 |P.M.............................................|
e|------------------------------------------------|
b|------------------------------------------------|
g|------------------------------------------------|
D|-----444444499998888888666666666665555888888----| x3
A|6666-222222277776666666444444444447777666666----|
E|4444--------------------------------------------|

"RUN FOR YOUR LIFE...(shouts)"

               Ab
RUN FOR YOUR LIFE - Nobodies gonna wake you up
               B
RUN FOR YOUR LIFE - Nobodies gonna save you now
Db                            Eb
He feeds on broken dreams and haunts you through the night
               Ab
RUN FOR YOUR LIFE - Nobodies gonna wake you up
               B
RUN FOR YOUR LIFE - Nobodies gonna save you now
Db                               Eb
This trains a hell bound ride so hold your pillow tight
               Ab
RUN FOR YOUR LIFE - run for your life
               B
RUN FOR YOUR LIFE - run for your life
Db                            Eb
He feeds on broken dreams and haunts you through the night
               Ab
RUN FOR YOUR LIFE - run for your life
               B
RUN FOR YOUR LIFE - run for your life
Db                               Eb
This trains a hell bound ride so hold your pillow tight


e|----------------|
b|----------------|
g|--4-6-4-7-4-6-4-| x3
D|--4-6-4-7-4-6-4-|
A|6-2-4-2-5-2-4-2-|
E|4---------------|


e|---|---|
b|---|---|
g|---|---|
D|6--|6--|
A|6--|6--|
E|4--|4--|

Have fun...;)
            
Hard to play? Try these video lessons and learn fast. | Correct




comments powered by Disqus
↑ Back to top | Tablatures and chords are parodies/interpretations of the original songs. You may use it for private study, scholarship, research or language learning purposes only