» » »

The Creepshow, Run For Your Life Tabs (ver.3)

Artists:  A B C D E F G H I J K L M N O P Q R S T U V W X Y Z # 

Run For Your Life Tabs (ver.3)

The Creepshow Tabs
 Rating:
4/5 (4 votes)
Run For Your Life lessons Tabs too difficult? Try these video lessons and learn fast
1
                Tuning: Standard

Notes: Listen to the song to get the rythm better

Intro

E--------------------------------------------------------------------------|
B--------------------------------------------------------------------------|
G--------------------------------------------------------------------------|
D--------------------------------------------------------------------------|
A---------------------------7--7--7--7-6--6-6--6666-4--4--4--4-4--44--4444-|
E---4--4--4--4-7--7-7--7777------------------------------------------------|

                          x2
--------------------------||
--------------------------||
-------------------------*||
--------------------------||
7--7--7--7-6--6-6--6666--*||
--------------------------||


Bridge
                    x3
E--------------------|----------------||
B--------------------|----------------||
G-------4-6-4-7-4-6-*|----------------||
D---6---4-6-4-7-4-6--|---6------------||
A-x-6-x-2-4-2-5-2-4-*|-x-6------------||
E-x-4-x--------------|-x-4------------||


Bridge Part 2
                     x3
E---------------------|----------------------||
B---------------------|----------------------||
G--------4-6-4-7-4-6-*|---4-4-4-4-7--7--7----||
D----6---4-6-4-7-4-6--|-x-4-4-4-4-7--7--7--4-||
A--x-6-x-2-4-2-5-2-4-*|-x-2-2-2-2-5--5--5--4-||
E--x-4-x--------------|-x------------------2-||


Verse

E----------------|----------------|---------------|
B----------------|----------------|---------------|
G----------------|----------------|---------------|
D-6------------4-|-6------------6-|-11------------|
A-6------------4-|-6------------6-|-11------------|
E-4------------2-|-4------------4-|--9------------|

-------------------------|----------------|-------------|
-------------------------|----------------|-------------|
-------------------------|----------------|-------------|
-14-14-14-14-13--13--13--|-6------------4-|-6-----------|
-14-14-14-14-13--13--13--|-6------------4-|-6-----------|
-12-12-12-12-11--11--11--|-4------------2-|-4-----------|

--------------------------|-------------------------||
--------------------------|-------------------------||
--------------------------|-------------------------||
--14-14-14-14-14-14-14-14-|-13-13-13-13-13-13-13-13-||
--14-14-14-14-14-14-14-14-|-13-13-13-13-13-13-13-13-||
--12-12-12-12-12-12-12-12-|-11-11-11-11-11-11-11-11-||


Pre Chorus
                                                       .
E-------------|------------|-------------|------------------||
B-------------|------------|-------------|------------------||
G-------------|------------|-------------|------------------||
D-11----------|-4----------|-11----------|-14-14-14-14--14--||
A-11----------|-4----------|-11----------|-14-14-14-14--14--||
E--9----------|-2----------|--9----------|-12-12-12-12--12--||


Chorus
On last rep on final chorus double the amount of D# P.Chord                x2
E--------------------------------------------------------------------------|
B--------------------------------------------------------------------------|
G-------------------------------------9-9-9-9-9-9-9-9---8-8-8-8-8-8-8-8---*|
D-6-6-6-6-6-6-6-6---9-9-9-9-9-9-9-9---9-9-9-9-9-9-9-9-x-8-8-8-8-8-8-8-8-x--|
A-6-6-6-6-6-6-6-6-x-9-9-9-9-9-9-9-9-x-7-7-7-7-7-7-7-7-x-6-6-6-6-6-6-6-6-x-*|
E-4-4-4-4-4-4-4-4-x-7-7-7-7-7-7-7-7-x--------------------------------------|

Bridge Part 2 x 1
Verse x 1
Pre Chorus x 1
Chorus x 1


Interlude
                                                           x3
E---------------------------------------|---------------------||
B---------------------------------------|---------------------||
G-9-9-9-9-9-9-9-9---4-4-4---11-11-11---*|-9-9-9-9-9-9-9-9-----||
D-9-9-9-9-9-9-9-9-x-4-4-4-x-11-11-11-x--|-9-9-9-9-9-9-9-9--4--||
A-7-7-7-7-7-7-7-7-x-2-2-2-x--9--9--9-x-*|-7-7-7-7-7-7-7-7--4--||
E---------------------------------------|------------------2--||


Intro x 2
Chorus x 2
Bridge x 1


Outro

E-----||
B-----||
G-----||
D-4-6-||
A-4-6-||
E-2-4-||
            
Submit corrections

comments powered by Disqus
↑ Back to top | The Creepshow Tabs for Run For Your Life. Lyrics for acoustic guitar and electric guitar. 1 Tablatures and chords are parodies/interpretations of the original songs. You may use it for private study, scholarship, research or language learning purposes only