» » »

The Courteeners, What Took You So Long? Tabs (ver.1)

Artists:  A B C D E F G H I J K L M N O P Q R S T U V W X Y Z # 

What Took You So Long? Tabs (ver.1)

The Courteeners Tabs
Rating:
0/5 (0 votes)
What Took You So Long? lessons Tabs too difficult? Try these video lessons and learn fast
                
tuning: stanadard EADGBe

intro

e------------------------------------------------------------------|
B------------------------------------------------------------3-----|
G----------------------------------2-2-2-2-2-2-0-2-2-2-2/4-4-4-4-2-| 
D--2-2-2-2-2-2-2-0-0-0-0-0-0-0-0-0---------------------------------|
A-3-3-3-3-3-3-3-3-2-2-2-2-2-2-2-2-0-0-0-0-0-0-0-0-0-0-0-0-0-0-0-0-0|
E------------------------------------------------------------------|

e------------------------------------------------------------------|
B------------------------------------------------1-1-1-1-3-3-3-3-3-|
G----------------------------------2-2-2-2-2-2-0-2-2-2-2/4-4-4-4-4-| 
D--2-2-2-2-2-2-2-0-0-0-0-0-0-0-0-0---------------------------------|
A-3-3-3-3-3-3-3-3-2-2-2-2-2-2-2-2-0-0-0-0-0-0-0-0-0-0-0-0-0-0-0-0-0|
E------------------------------------------------------------------|

pre-verse

1st guitar

e-------------|-------------|-------------|--------------------|
B------8------|------8------|------5------|------1--------3----|
G----9---9----|----9---9----|----5---5----|----2---2----4---4--|
D-10----------|-9-----------|-7-----------|-3---------5--------|
A-------------|-------------|-------------|--------------------|
E-------------|-------------|-------------|--------------------|

     c             Em            Am             F        G

                     2nd guitar plays chords

verse

c, Em, Am, F, G

chorus

1st guitar

e-----|-----|-----|-----|-----|
B--8--|--8--|--5--|--1--|--3--|
G--9--|--9--|--5--|--2--|--4--|
D--10-|--9--|--7--|--3--|--5--|
A-----|-----|-----|-----|-----|
E-----|-----|-----|-----|-----|

  c     Em    Am     F     G


bridge

e-------------|-------------|-------------|--------------------|
B------8------|------8------|------5------|------1--------3----|
G----9---9----|----9---9----|----5---5----|----2---2----4---4--|
D-10----------|-9-----------|-7-----------|-3---------5--------|
A-------------|-------------|-------------|--------------------|
E-------------|-------------|-------------|--------------------|

     c             Em            Am             F        G

1st guitar

e-12-----|-10-----|-8------|
B---13---|---12---|---10---|
G-----12-|-----12-|-----10-|
D--------|--------|--------|
A--------|--------|--------|
E--------|--------|--------|

2nd guitar

e---12---|---12---|---10---|-8-8-8-8-8-8-8-8-10-10-10-10-10-10-10-10-|
B---13---|---13---|---12---|-101010101010101012-12-12-12-12-12-12-12-|
G---12---|---12---|---12---|-101010101010101012-12-12-12-12-12-12-12-|
D--------|--------|--------|-----------------------------------------|
A--------|--------|--------|-----------------------------------------|
E--------|--------|--------|-----------------------------------------|

e-------------|-------------|-------------|--------------------|
B------8------|------8------|------5------|------1--------3----|
G----9---9----|----9---9----|----5---5----|----2---2----4---4--|
D-10----------|-9-----------|-7-----------|-3---------5--------|
A-------------|-------------|-------------|--------------------|
E-------------|-------------|-------------|--------------------|

     c             Em            Am             F        G

chorus

1st guitar

e-----|-----|-----|-----|-----|
B--8--|--8--|--5--|--1--|--3--|
G--9--|--9--|--5--|--2--|--4--|
D--10-|--9--|--7--|--3--|--5--|
A-----|-----|-----|-----|-----|
E-----|-----|-----|-----|-----|

  c     Em    Am     F     G

end

e--12-|--12-|--10-|--8--|--10-|
B--13-|--13-|--12-|--10-|--12-|
G--12-|--12-|--12-|--10-|--12-|
D-----|-----|-----|-----|-----|
A-----|-----|-----|-----|-----|
E-----|-----|-----|-----|-----|
  C      Em   Am     F     G


        not very accurate i dont think but sounds fair good


                     mint song. mint band
            

comments powered by Disqus
↑ Back to top | The Courteeners Tabs for What Took You So Long?. Lyrics for acoustic guitar and electric guitar. Tablatures and chords are parodies/interpretations of the original songs. You may use it for private study, scholarship, research or language learning purposes only