>
 >
Trying To Hard Too Score

Trying To Hard Too Score Guitar Tabs

The Courteeners - Trying To Hard Too Score chords, tabs, tablatures, lyrics

Guitar lessons | Add/correct | Request | Top 50 tabs Artists:  A B C D E F G H I J K L M N O P Q R S T U V W X Y Z 0-9

Trying To Hard Too Score Guitar Tabs – The Courteeners

CD, Sheet music, Poster

Do you like Trying To Hard Too Score? Share with your friends now
Tabs
Trying to Hard to Score:

Top B-side by the Courteeners.

I've done this in the way I play it. Fray and Conan both play over each other. Listen to 
record to get the timing and rythyms etc.


Standard Tuning:

Chords - Bm F#m Am (All in E minor Shape Barr)

Intro:


e-----------    ----7x7x7x7x7x7x7x7x--x-----|
B-----------    ----7x7x7x7x7x7x7x7x--x-----|
G-----------    ----7x7x7x7x7x7x7x7x--777---|
D-----------    ----9x7x7x7x7x7x7x7x--999---|
A-----------    ----9x7x7x7x7x7x7x7x--999---|
E-----7~----    ----7x7x7x7x7x7x7x7x--x-----|

e--7x7x7x7x7x7x7x7x--x----7x7x7x7x7x7x7x7x-7-7xxx-7-7xxx-7-7xxx-7-7-7--|
B--7x7x7x7x7x7x7x7x--x----7x7x7x7x7x7x7x7x-7-7xxx-7-7xxx-7-7xxx-7-7-7--|
G--7x7x7x7x7x7x7x7x--777--7x7x7x7x7x7x7x7x-7-7xxx-7-7xxx-7-7xxx-7-9-7--|
D--9x7x7x7x7x7x7x7x--999--9x9x9x9x9x9x9x9x-9-9xxx-9-9xxx-9-7xxx-7-7-9--|
A--9x7x7x7x7x7x7x7x--999--9x9x9x9x9x9x9x9x-9-9xxx-9-9xxx-9-7xxx-7-9-9--|
E--7x7x7x7x7x7x7x7x--x----7x7x7x7x7x7x7x7x-7-7xxx-9-9xxx-7-7xxx-7-7-7--|

e-7-7xxx-7-7xxx-7-7xxx-7-7-7-7-7-7-7-7-7-7-7-7-7-7-7-7-7-7-|
B-7-7xxx-7-7xxx-7-7xxx-7-7-7-7-7-7-7-7-7-7-7-7-7-7-7-7-7-7-|
G-7-7xxx-7-7xxx-7-7xxx-7-9-7-7-7-7-7-7-7-7-7-7-7-7-7-7-7-7-|
D-9-9xxx-9-9xxx-9-7xxx-7-7-9-9-9-9-9-9-9-9-9-9-9-9-9-9-9-9-|
A-9-9xxx-9-9xxx-9-7xxx-7-9-9-9-9-9-9-9-9-9-9-9-9-9-9-9-9-9-|
E-7-7xxx-9-9xxx-7-7xxx-7-7-7-7-7-7-7-7-7-7-7-7-7-7-7-7-7-7-|

e-7-7-7-7-7-7-7-7-7-7-7-7-7-7-7-7-|
B-7-7-7-7-7-7-7-7-7-7-7-7-7-7-7-7-|
G-7-7-7-7-7-7-7-7-7-7-7-7-7-7-7-7-|
D-9-9-9-9-9-9-9-9-9-9-9-9-9-9-9-9-|
A-9-9-9-9-9-9-9-9-9-9-9-9-9-9-9-9-|
E-7-7-7-7-7-7-7-7-7-7-7-7-7-7-7-7-|

e----10--10--10------10-------10--10--10------10---|
B--12--12--12--12--14--14--12---12--12--12--14--14-|
G--------------------------------------------------|
D--------------------------------------------------|
A--------------------------------------------------|
E--------------------------------------------------|

e----17-------17-------17-------17--------14--14--17--14--17-|
B-12----15-------15-------15-------15------------------------|
G----------16-------16-------16-------16---------------------|
D------------------------------------------------------------|
A------------------------------------------------------------|
E------------------------------------------------------------|

e--------10----|
B-----10----10-|
G--11----------|
D--------------|
A--------------|
E--------------|

e-x-x-x-x-x-x-x-x-x-x-x-x-x-x-x-x----------|  N.C
B-x-x-x-x-x-x-x-x-x-x-x-x-x-x-x-x----------|
G-x-x-x-x-x-x-x-x-x-x-x-x-x-x-x-x----------|
D-9-9-9-9-9-9-9-9-x-x-x-x-x-x-x-x----------|         x3
A-9-9-9-9-9-9-9-9-x-x-x-x-x-x-x-x----------|
E-7-7-7-7-7-7-7-7-x-x-x-x-x-x-x-x----------|

e-x-x-x-x-x  -x-x-x-x-|
B-x-x-x-x-x  -x-x-x-x-|
G-x-x-x-x-x  -x-x-x-x-|
D-4-4-4-4-4  -7-7-7-7-|
A-4-4-4-4-4  -7-7-7-7-|
E-2-2-2-2-2  -5-5-5-5-|


Verse 1:
Bm                            (Riff*)
He thought he was better than most and he pissed all over the holy ghost
                                   F#m                     Am
He never used to pay on the disco door, what a shame he's trying to hard to
       Bm
score


e-----17-17-17-17-17-17-17-17-17-17-17-17-17-17-17-17-|
B-----15-15-15-15-15-15-15-15-15-15-15-15-15-15-15-15-| x3  F#m Am
G-----16-16-16-16-16-16-16-16-16-16-16-16-16-16-16-16-|

Chorus:

Bm
You better be on your best behaviour

Bm                                   F#m     Am
You better be on your best behaviour

Bm                                   F#m     Am
You better be on your best behaviour

e--------------------------------------------------------------------|
B--------------------------------------------------------------------|
G--------------------------------------------------------------------|
D--------------------------------------------------------------------|
A--------------------------------------------------------------------|
E ---7-7-7-7-7-7-9-10-9-7-7-7-7-7-7-7-9-10-9-7-10-7-10-7-10-7-9-10-9-|

F#m   Am   Bm - Bm

e--10-9-7-10-7-|
B--------7-----|    Bm - F#m - Am

Verse 2

Repeat above

Chorus

You better be on you best behaviour and if your not i'll be coming to save ya
You better be on your best behaviour

Outro:

e----10--10--10------10-------10--10--10------10---|
B--12--12--12--12--14--14--12---12--12--12--14--14-|
G--------------------------------------------------|
D--------------------------------------------------|
A--------------------------------------------------|
E--------------------------------------------------|

e----17-------17-------17-------17--------14--14--17--14--17-|
B-12----15-------15-------15-------15------------------------|
G----------16-------16-------16-------16---------------------|
D------------------------------------------------------------|
A------------------------------------------------------------|
E------------------------------------------------------------|

e--------10----|
B-----10----10-|   Bm
G--11----------|
D--------------|
A--------------|
E--------------|





Comments


Popular The Courteeners tabs & chords
An Ex Is An Ex For A Reason 1 Chords
Bide Your Time 2 Chords
Saw This And Fort Of You Chords
Van Der Graff Chords
What Took You So Long Chords
Whites Of Her Eyes Chords
Bojangles Tabs
Cavorting 1 Tabs
Yesterday Today And Probably Tomorrow Tabs
More Than A Weekend To Fix This Mess Ukulele


Song lyrics



↑ Back to top | Tablatures and chords are parodies/interpretations of the original songs. You may use it for private study, scholarship, research or language learning purposes only
© 2014 AZChords.com Contact us | Privacy policy | DMCA | Add/correct tabs | Request tabs | Top 50 tabs