>
 >
Scratch Your Name Upon My Lips

Scratch Your Name Upon My Lips Guitar Tabs

The Courteeners - Scratch Your Name Upon My Lips chords, tabs, tablatures, lyrics

Guitar lessons | Add/correct | Request | Top 50 tabs Artists:  A B C D E F G H I J K L M N O P Q R S T U V W X Y Z 0-9

Scratch Your Name Upon My Lips Guitar Tabs – The Courteeners

CD, Sheet music, Poster

Do you like Scratch Your Name Upon My Lips? Share with your friends now
ChordsTabsUkulele
-------------------------------------------------------------------------------
                SCRATCH YOUR NAME UPON MY LIPS  The Courteeners
-------------------------------------------------------------------------------

I've tabbed this from scratch, I hope it's right :)
Please comment and rate!


TUNING: STANDARD

************************************

| h   hammer-on
| p   pull-off
| x   Mute/Dead note

************************************


INTRO RIFF - GUITAR 1

This riff is played over a distorted bass, which should be easy to work out 
PART 1
e|--------12-------12--------12--------12--------17-------14-------17------------|
B|----15------15--------15--------15---------15-------15-------15-------15--15---|
G|--16--16--16--16----16--16----16--16-----14--14---14--14---14--14---14--14-----|
D|-------------------------------------------------------------------------------|
A|-------------------------------------------------------------------------------|
E|-------------------------------------------------------------------------------|

e|--------12------12--------12--------12--------------------------17--17--17--17-|
B|---15-------15--------15--------15---------15---15---15---15-------------------|
G|-16--16---16--16----16--16----16--16-----14---14---14---14----15---------------|
D|-------------------------------------------------------------------------------|
A|-------------------------------------------------------------------------------|
E|-------------------------------------------------------------------------------|


PART 2
e|--------12-------12--------12--------12--------17-------14-------17------------|
B|----15------15--------15--------15---------15-------15-------15-------15--15---|
G|--16--16--16--16----16--16----16--16-----14--14---14--14---14--14---14--14-----|
D|-------------------------------------------------------------------------------|
A|-------------------------------------------------------------------------------|
E|-------------------------------------------------------------------------------|

e|--------12------12--------12--------12------------------14--------17-----------|
B|---15-------15--------15--------15--------------15-----------------------------|
G|-16--16---16--16----16--16----16--16-----14------------------------------------|
D|-------------------------------------------------------------------------------|
A|-------------------------------------------------------------------------------|
E|-------------------------------------------------------------------------------|
END OF INTRO


Okay, GUITAR 2 (which is heavily distorted) comes in here, playing the chords, whilst 
1 plays the lead quietly.

GUITAR 1
e|-------------------------------------------------------------------------------|
B|-------3--------3--------3--5--3----3--------2-------2-------2--3--2----2------|
G|--4--------4--------4-------------4------2-------2-------2------------2--------|
D|-------------------------------------------------------------------------------|
A|-------------------------------------------------------------------------------|
E|-------------------------------------------------------------------------------|
 |  Six thousand miles away              The first thing on my mind              |
 | GUITAR 2                                                                      |
e|-------------------------------------------------------------------------------|
B|-------------------------------------------------------------------------------|
G|--7-----------------------------------6----------------------------------------|
D|--9-(Fast downstrokes)----------------7--(Fast downstrokes)--------------------|
A|--9-----------------------------------7----------------------------------------|
E|--7-----------------------------------5----------------------------------------|


GUITAR 1
e|-------------------------------------------------------------------------------|
B|-------3--------3--------3--5--3----3--------2-------2-------2--3--2----2------|
G|--4--------4--------4-------------4------2-------2-------2------------2--------|
D|-------------------------------------------------------------------------------|
A|-------------------------------------------------------------------------------|
E|-------------------------------------------------------------------------------|
 |   Ive not been to bed, my thoughts are racing, my heart is lagging behind     |
 | GUITAR 2                                                                      |
e|-------------------------------------------------------------------------------|
B|-------------------------------------------------------------------------------|
G|--7-----------------------------------6----------------------------------------|
D|--9-(Fast downstrokes)----------------7--(Fast downstrokes)--------------------|
A|--9-----------------------------------7----------------------------------------|
E|--7-----------------------------------5----------------------------------------|


Guitar 1 plays nothing for the next bit, but the bass changes slightly
GUITAR 1
e|-------------------------------------------------------------------------------|
B|-------------------------------------------------------------------------------|
G|-------------------------------------------------------------------------------|
D|-------------------------------------------------------------------------------|
A|-------------------------------------------------------------------------------|
E|-------------------------------------------------------------------------------|
 |         Oooh-whoaaaa-whoaaaa           Oooh-whoaaaa-whoaaaa             |
 | GUITAR 2                                                                      |
e|-------------------------------------------------------------------------------|
B|-------------------------------------------------------------------------------|
G|--7-----------------------------------6----------------------------------------|
D|--9-(Fast downstrokes)----------------7--(Fast downstrokes)--------------------|
A|--9-----------------------------------7----------------------------------------|
E|--7-----------------------------------5----------------------------------------|


GUITAR 1
e|-------------------------------------------------------------------------------|
B|-------------------------------------------------------------------------------|
G|-------------------------------------------------------------------------------|
D|-------------------------------------------------------------------------------|
A|-------------------------------------------------------------------------------|
E|-------------------------------------------------------------------------------|
 |          Oooh-whoaaaa-whoaaaa          Oooh-whoaaaa-whoaaaa                   |
 | GUITAR 2                                                                      |
e|-------------------------------------------------------------------------------|
B|-------------------------------------------------------------------------------|
G|--7-----------------------------------6----------------------------------------|
D|--9-(Fast downstrokes)----------------7--(Fast downstrokes)--------------------|
A|--9-----------------------------------7----------------------------------------|
E|--7-----------------------------------5----------------------------------------|


GUITAR 1
e|-------------------------------------------------------------------------------|
B|-------3--------3--------3--5--3----3--------2-------2-------2--3--2----2------|
G|--4--------4--------4-------------4------2-------2-------2------------2--------|
D|-------------------------------------------------------------------------------|
A|-------------------------------------------------------------------------------|
E|-------------------------------------------------------------------------------|
 |  Desperate times ... double measures, the drinks ... alleviating the pressure |
 | GUITAR 2                                                                      |
e|-------------------------------------------------------------------------------|
B|-------------------------------------------------------------------------------|
G|--7-----------------------------------6----------------------------------------|
D|--9-(Fast downstrokes)----------------7--(Fast downstrokes)--------------------|
A|--9-----------------------------------7----------------------------------------|
E|--7-----------------------------------5----------------------------------------|


GUITAR 1
e|-------------------------------------------------------------------------------|
B|-------3--------3--------3--5--3----3--------2-------2-------2--3--2----2------|
G|--4--------4--------4-------------4------2-------2-------2------------2--------|
D|-------------------------------------------------------------------------------|
A|-------------------------------------------------------------------------------|
E|-------------------------------------------------------------------------------|
 | Just to see you ... now if only I could, just to breathe the ... know that I would    
|
 | GUITAR 2                                                                      |
e|-------------------------------------------------------------------------------|
B|-------------------------------------------------------------------------------|
G|--7-----------------------------------6----------------------------------------|
D|--9-(Fast downstrokes)----------------7--(Fast downstrokes)--------------------|
A|--9-----------------------------------7----------------------------------------|
E|--7-----------------------------------5----------------------------------------|


GUITAR 1
e|-------------------------------------------------------------------------------|
B|-------------------------------------------------------------------------------|
G|-------------------------------------------------------------------------------|
D|-------------------------------------------------------------------------------|
A|-------------------------------------------------------------------------------|
E|-------------------------------------------------------------------------------|
 |       Oooh-whoaaaa-whoaaaa            Oooh-whoaaaa-whoaaaa                    |
 | GUITAR 2                                                                      |
e|-------------------------------------------------------------------------------|
B|-------------------------------------------------------------------------------|
G|--7-----------------------------------6----------------------------------------|
D|--9-(Fast downstrokes)----------------7--(Fast downstrokes)--------------------|
A|--9-----------------------------------7----------------------------------------|
E|--7-----------------------------------5----------------------------------------|


GUITAR 1
e|-------------------------------------------------------------------------------|
B|-------------------------------------------------------------------------------|
G|-------------------------------------------------------------------------------|
D|-------------------------------------------------------------------------------|
A|-------------------------------------------------------------------------------|
E|-------------------------------------------------------------------------------|
 |         Oooh-whoaaaa-whoaaaa          Oooh-whoaaaa-whoaaaa              |
 | GUITAR 2                                                                      |
e|-------------------------------------------------------------------------------|
B|-------------------------------------------------------------------------------|
G|--7-----------------------------------6----------------------------------------|
D|--9-(Fast downstrokes)----------------7--(Fast downstrokes)--------------------|
A|--9-----------------------------------7----------------------------------------|
E|--7-----------------------------------5----------------------------------------|


GUITAR 1
e|-------------------------------------------------------------------------------|
B|-------------------------------------------------------------------------------|
G|x-x-x-x-x-x-x-x-7-7-7-7-7-7-7-7-9-9-9-9-9-9-9-9-6-6-6-6-6-6-6------------------|
D|-------------------------------------------------------------------------------|
A|-------------------------------------------------------------------------------|
E|-------------------------------------------------------------------------------|
 |  Ohhhhh-whooaaa-ohhhh          A needle in the heart from a silhouette        |
 | GUITAR 2                                                                      |
e|-------------------------------------------------------------------------------|
B|7------------------------------9-----------------------------------------------|
G|7--------------7---------------9---------------6-------------------------------|
D|7--------------9---------------9---------------7-- ALL FAST DOWNSTROKE---------|
A|5--------------9---------------7---------------7-------------------------------|
E|---------------7-------------------------------5-------------------------------|


GUITAR 1
e|-------------------------------------------------------------------------------|
B|-------------------------------------------------------------------------------|
G|x-x-x-x-x-x-x-x-7-7-7-7-7-7-7-7-9-9-9-9-9-9-9-9-6-6-6-6-6-6-6-6-6-6-6-6-6-6-6-6|
D|-------------------------------------------------------------------------------|
A|-------------------------------------------------------------------------------|
E|-------------------------------------------------------------------------------|
 | Ohhhhh-whooaaa-ohhhh           She couldve been you but for the cigarette     |
 | GUITAR 2                                                                      |
e|-------------------------------------------------------------------------------|
B|7------------------------------9-----------------------------------------------|
G|7--------------7---------------9---------------6-------------------------------|
D|7--------------9---------------9---------------7-- ALL FAST DOWNSTROKE---------|
A|5--------------9---------------7---------------7-------------------------------|
E|---------------7-------------------------------5-------------------------------|


GUITAR 1
e|-------------------------------------------------------------------------------|
B|-------------------------------------------------------------------------------|
G|-------------------------------------------------------------------------------|
D|-------------------------------------------------------------------------------|
A|-------------------------------------------------------------------------------|
E|-------------------------------------------------------------------------------|
 | GUITAR 2                                                                      |
e|---7~~~~~~~--------------------------------------------------------------------|
B|---9~~~~~~~--------------------------------------------------------------------|
G|---9~~~~~~~-(LET RING)---------------------------------------------------------|
D|---9~~~~~~~--------------------------------------------------------------------|
A|---7~~~~~~~--------------------------------------------------------------------|
E|---7~~~~~~~--------------------------------------------------------------------|

Then comes the weird synth bit - If you dont have the kit to play the synth, you could 
just improvise/freestyle on the lower three strings on the guitar


GUITAR 1
e|-------------------------------------------------------------------------------|
B|-------3--------3--------3--5--3----3--------2-------2-------2--3--2----2------|
G|--4--------4--------4-------------4------2-------2-------2------------2--------|
D|-------------------------------------------------------------------------------|
A|-------------------------------------------------------------------------------|
E|-------------------------------------------------------------------------------|
 |                               [NO LYRICS]                                     |
 | GUITAR 2                                                                      |
e|-------------------------------------------------------------------------------|
B|-------------------------------------------------------------------------------|
G|--7-----------------------------------6----------------------------------------|
D|--9-(Fast downstrokes)----------------7--(Fast downstrokes)--------------------|
A|--9-----------------------------------7----------------------------------------|
E|--7-----------------------------------5----------------------------------------|


GUITAR 1
e|-------------------------------------------------------------------------------|
B|-------3--------3--------3--5--3----3--------2-------2-------2--3--2----2------|
G|--4--------4--------4-------------4------2-------2-------2------------2--------|
D|-------------------------------------------------------------------------------|
A|-------------------------------------------------------------------------------|
E|-------------------------------------------------------------------------------|
 |                               [NO LYRICS]                                     |
 | GUITAR 2                                                                      |
e|-------------------------------------------------------------------------------|
B|-------------------------------------------------------------------------------|
G|--7-----------------------------------6----------------------------------------|
D|--9-(Fast downstrokes)----------------7--(Fast downstrokes)--------------------|
A|--9-----------------------------------7----------------------------------------|
E|--7-----------------------------------5----------------------------------------|

The guitars stop here - just the distorted bass playing
GUITAR 1
e|-------------------------------------------------------------------------------|
B|-------------------------------------------------------------------------------|
G|-------------------------------------------------------------------------------|
D|-------------------------------------------------------------------------------|
A|-------------------------------------------------------------------------------|
E|-------------------------------------------------------------------------------|
 |    When back, will you dig your heels in, dig your heels into my back?        |
 | GUITAR 2                                                                      |
e|-------------------------------------------------------------------------------|
B|-------------------------------------------------------------------------------|
G|-------------------------------------------------------------------------------|
D|-------------------------------------------------------------------------------|
A|-------------------------------------------------------------------------------|
E|-------------------------------------------------------------------------------|


GUITAR 1
e|-------------------------------------------------------------------------------|
B|-------------------------------------------------------------------------------|
G|-------------------------------------------------------------------------------|
D|-------------------------------------------------------------------------------|
A|-------------------------------------------------------------------------------|
E|-------------------------------------------------------------------------------|
 |       Scratch your name upon my lips, take the belt from off your hips        |
 | GUITAR 2                                                                      |
e|-------------------------------------------------------------------------------|
B|-------------------------------------------------------------------------------|
G|-------------------------------------------------------------------------------|
D|-------------------------------------------------------------------------------|
A|-------------------------------------------------------------------------------|
E|-------------------------------------------------------------------------------|


GUITAR 1
e|-------------------------------------------------------------------------------|
B|-------3-(LET RING)--------5--3--------------2-(LET RING)---3--2-(LET RING)----|
G|--4------------------------------4-------2-------------------------------------|
D|-------------------------------------------------------------------------------|
A|-------------------------------------------------------------------------------|
E|-------------------------------------------------------------------------------|
 |          Oooh-whoaaaa-whoaaaa             Oooh-whoaaaa-whoaaaa                |
 | GUITAR 2                                                                      |
e|-------------------------------------------------------------------------------|
B|-------3--------3--------3--5--3----3--------2-------2-------2--3--2----2------|
G|--4--------4--------4-------------4------2-------2-------2------------2--------|
D|-------------------------------------------------------------------------------|
A|-------------------------------------------------------------------------------|
E|-------------------------------------------------------------------------------|


GUITAR 1
e|-------------------------------------------------------------------------------|
B|-------3--------3--------3--5--3----3--------2-------2-------2--3--2----2------|
G|--4--------4--------4-------------4------2-------2-------2------------2--------|
D|-------------------------------------------------------------------------------|
A|-------------------------------------------------------------------------------|
E|-------------------------------------------------------------------------------|
 |       Oooh-whoaaaa-whoaaaa                Oooh-whoaaaa-whoaaaa                |
 | GUITAR 2                                                                      |
e|-------------------------------------------------------------------------------|
B|-------------------------------------------------------------------------------|
G|-------------------------------------------------------------------------------|
D|-------------------------------------------------------------------------------|
A|-------------------------------------------------------------------------------|
E|-------------------------------------------------------------------------------|


GUITAR 1
e|-------------------------------------------------------------------------------|
B|-------------------------------------------------------------------------------|
G|x-x-x-x-x-x-x-x-7-7-7-7-7-7-7-7-9-9-9-9-9-9-9-9-6-6-6-6-6-6-6------------------|
D|-------------------------------------------------------------------------------|
A|-------------------------------------------------------------------------------|
E|-------------------------------------------------------------------------------|
 | Ohhhhh-whooaaa-ohhhh            A needle in the heart from a silhouette       |
 | GUITAR 2                                                                      |
e|-------------------------------------------------------------------------------|
B|7------------------------------9-----------------------------------------------|
G|7--------------7---------------9---------------6-------------------------------|
D|7--------------9---------------9---------------7-- ALL FAST DOWNSTROKE---------|
A|5--------------9---------------7---------------7-------------------------------|
E|---------------7-------------------------------5-------------------------------|


GUITAR 1
e|-------------------------------------------------------------------------------|
B|-------------------------------------------------------------------------------|
G|x-x-x-x-x-x-x-x-7-7-7-7-7-7-7-7-9-9-9-9-9-9-9-9-6-6-6-6-6-6-6-6-6-6-6-6-6-6-6-6|
D|-------------------------------------------------------------------------------|
A|-------------------------------------------------------------------------------|
E|-------------------------------------------------------------------------------|
 | Ohhhhh-whooaaa-ohhhh          She couldve been you but for the cigarette      |
 | GUITAR 2                                                                      |
e|-------------------------------------------------------------------------------|
B|7------------------------------9-----------------------------------------------|
G|7--------------7---------------9---------------6-------------------------------|
D|7--------------9---------------9---------------7-- ALL FAST DOWNSTROKE---------|
A|5--------------9---------------7---------------7-------------------------------|
E|---------------7-------------------------------5-------------------------------|


GUITAR 1
e|-------------------------------------------------------------------------------|
B|-------------------------------------------------------------------------------|
G|-------------------------------------------------------------------------------|
D|-------------------------------------------------------------------------------|
A|-------------------------------------------------------------------------------|
E|-------------------------------------------------------------------------------|
 | GUITAR 2                                                                      |
e|---7~~~~~~~--------------------------------------------------------------------|
B|---9~~~~~~~--------------------------------------------------------------------|
G|---9~~~~~~~-(LET RING)---------------------------------------------------------|
D|---9~~~~~~~--------------------------------------------------------------------|
A|---7~~~~~~~--------------------------------------------------------------------|
E|---7~~~~~~~--------------------------------------------------------------------|

A piano now plays PART 1 of the intro twice, but the guitar equivalent is as follows:

e|--------12-------12--------12--------12--------17-------14-------17------------|
B|----15------15--------15--------15---------15-------15-------15-------15--15---|
G|--16--16--16--16----16--16----16--16-----14--14---14--14---14--14---14--14-----|
D|-------------------------------------------------------------------------------|
A|-------------------------------------------------------------------------------|
E|-------------------------------------------------------------------------------|

e|--------12------12--------12--------12--------------------------17--17--17--17-|
B|---15-------15--------15--------15---------15---15---15---15-------------------|
G|-16--16---16--16----16--16----16--16-----14---14---14---14----15---------------|
D|-------------------------------------------------------------------------------|
A|-------------------------------------------------------------------------------|
E|-------------------------------------------------------------------------------|

e|--------12-------12--------12--------12--------17-------14-------17------------|
B|----15------15--------15--------15---------15-------15-------15-------15--15---|
G|--16--16--16--16----16--16----16--16-----14--14---14--14---14--14---14--14-----|
D|-------------------------------------------------------------------------------|
A|-------------------------------------------------------------------------------|
E|-------------------------------------------------------------------------------|

e|--------12------12--------12--------12--------------------------17--17--17--17-|
B|---15-------15--------15--------15---------15---15---15---15-------------------|
G|-16--16---16--16----16--16----16--16-----14---14---14---14----15---------------|
D|-------------------------------------------------------------------------------|
A|-------------------------------------------------------------------------------|
E|-------------------------------------------------------------------------------|


GUITAR 1
e|----------------------------------------------------------------------|
B|---3-3-3-3-3-3-3-3-3-3-3-3-3-3-3-3-2-2-2-2-2-2-2-2-2-2-2-2-2-2-2-2----|
G|----------------------------------------------------------------------|
D|----------------------------------------------------------------------|
A|----------------------------------------------------------------------|
E|----------------------------------------------------------------------|
 |                             [NO LYRICS]                              |
 | GUITAR 2                                                             |
e|----------------------------------------------------------------------|
B|----3------3------3-h-5-p-3---------2-----2------2-h-3-p-2----2---2---|
G|-------4------4---------------4--------2-------2-----------2----2-----|
D|----------------------------------------------------------------------|
A|----------------------------------------------------------------------|
E|----------------------------------------------------------------------|


GUITAR 1
e|----------------------------------------------------------------------|
B|---3-3-3-3-3-3-3-3-3-3-3-3-3-3-3-3-2-2-2-2-2-2-2-2-2-2-2-2-2-2-2-2----|
G|----------------------------------------------------------------------|
D|----------------------------------------------------------------------|
A|----------------------------------------------------------------------|
E|----------------------------------------------------------------------|
 |                             [NO LYRICS]                              |
 | GUITAR 2                                                             |
e|----------------------------------------------------------------------|
B|----3------3------3-h-5-p-3---------2-----2------2-h-3-p-2----2---2---|
G|-------4------4---------------4--------2-------2-----------2----2-----|
D|----------------------------------------------------------------------|
A|----------------------------------------------------------------------|
E|----------------------------------------------------------------------|


GUITAR 1
e|---------------------------------------------------------------------|
B|---------------------------------------------------------------------|
G|x-x-x-x-x-x-x-x-7-7-7-7-7-7-7-7-9-9-9-9-9-9-9-9-6-6-6-6-6-6-6--------|
D|---------------------------------------------------------------------|
A|---------------------------------------------------------------------|
E|---------------------------------------------------------------------|
 | Ohhhhh-whooaaa-ohhhh        A needle in the heart from a silhouette |
 | GUITAR 2                                                            |
e|---------------------------------------------------------------------|
B|7------------------------------9-------------------------------------|
G|7--------------7---------------9---------------6---------------------|
D|7--------------9---------------9---------------7-ALL FAST DOWNSTROKE-|
A|5--------------9---------------7---------------7---------------------|
E|---------------7-------------------------------5---------------------|


GUITAR 1
e|-------------------------------------------------------------------------------|
B|-------------------------------------------------------------------------------|
G|x-x-x-x-x-x-x-x-7-7-7-7-7-7-7-7-9-9-9-9-9-9-9-9-6-6-6-6-6-6-6-6-6-6-6-6-6-6-6-6|
D|-------------------------------------------------------------------------------|
A|-------------------------------------------------------------------------------|
E|-------------------------------------------------------------------------------|
 | Ohhhhh-whooaaa-ohhhh           She couldve been you but for the cigarette     |
 | GUITAR 2                                                                      |
e|-------------------------------------------------------------------------------|
B|7------------------------------9-----------------------------------------------|
G|7--------------7---------------9---------------6-------------------------------|
D|7--------------9---------------9---------------7-- ALL FAST DOWNSTROKE---------|
A|5--------------9---------------7---------------7-------------------------------|
E|---------------7-------------------------------5-------------------------------|


GUITAR 1
e|-------------------------------------------------------------------------------|
B|-------------------------------------------------------------------------------|
G|-------------------------------------------------------------------------------|
D|-------------------------------------------------------------------------------|
A|-------------------------------------------------------------------------------|
E|-------------------------------------------------------------------------------|
 |          Oooh-whoaaaa-whoaaaa        Oooh-whoaaaa-whoaaaa                     |
 | GUITAR 2                                                                      |
e|-------------------------------------------------------------------------------|
B|-------------------------------------------------------------------------------|
G|--7-----------------------------------6----------------------------------------|
D|--9-(Fast downstrokes)----------------7--(Fast downstrokes)--------------------|
A|--9-----------------------------------7----------------------------------------|
E|--7-----------------------------------5----------------------------------------|


GUITAR 1
e|-------------------------------------------------------------------------------|
B|-------------------------------------------------------------------------------|
G|-------------------------------------------------------------------------------|
D|-------------------------------------------------------------------------------|
A|-------------------------------------------------------------------------------|
E|-------------------------------------------------------------------------------|
 |     Oooh-whoaaaa-whoaaaa            Oooh-whoaaaa-whoaaaa, Oooh-whoaaaa-whoaaaa|
 | GUITAR 2                                                                      |
e|-------------------------------------------------------------------------------|
B|--7-----------------------------------9--------------------6-------------------|
G|--7-----------------------------------9--------------------6-------------------|
D|--7-(Fast downstrokes)----------------9--(Fast downstrokes)6-(Fast downstrokes)|
A|--5-----------------------------------7--------------------4-------------------|
E|-------------------------------------------------------------------------------|


GUITAR 1
e|--7-----------------------------------5----------------------------------------|
B|-------------------------------------------------------------------------------|
G|-------------------------------------------------------------------------------|
D|-------------------------------------------------------------------------------|
A|-------------------------------------------------------------------------------|
E|-------------------------------------------------------------------------------|
 |        When will I see you again?        When will I see you again?           |
 | GUITAR 2                                                                      |
e|-------------------------------------------------------------------------------|
B|-------------------------------------------------------------------------------|
G|--7-----------------------------------6----------------------------------------|
D|--9-(Fast downstrokes)----------------7--(Fast downstrokes)--------------------|
A|--9-----------------------------------7----------------------------------------|
E|--7-----------------------------------5----------------------------------------|


GUITAR 1
e|--10---------------------------------12--------------------9-------------------|
B|-------------------------------------------------------------------------------|
G|-------------------------------------------------------------------------------|
D|-------------------------------------------------------------------------------|
A|-------------------------------------------------------------------------------|
E|-------------------------------------------------------------------------------|
 |       When will I see you again?        When will I see you again?            |
 | GUITAR 2                                                                      |
e|-------------------------------------------------------------------------------|
B|--7-----------------------------------9--------------------6-------------------|
G|--7-----------------------------------9--------------------6-------------------|
D|--7-(Fast downstrokes)----------------9--(Fast downstrokes)6-(Fast downstrokes)|
A|--5-----------------------------------7--------------------4-------------------|
E|-------------------------------------------------------------------------------|
e|-------------------------------------------------------------------------------|


GUITAR 1
e|--7-7-7-7-7-7-7-7-7-7-7-7-7-7-7-7-5-5-5-5-5-5-5-5-5-5-5-5-5-5-5-5-|
B|------------------------------------------------------------------|
G|------------------------------------------------------------------|
D|------------------------------------------------------------------|
A|------------------------------------------------------------------|
E|------------------------------------------------------------------|
 |        When will I see you again?      When will I see you again?|
 | GUITAR 2                                                         |
e|------------------------------------------------------------------|
B|------------------------------------------------------------------|
G|--7-------------------------------6-------------------------------|
D|--9-(Fast downstrokes)------------7--(Fast downstrokes)-----------|
A|--9-------------------------------7-------------------------------|
E|--7-------------------------------5-------------------------------|


GUITAR 1
e|101010101010101010101010101010101010-12-12-12-12-12-12-12-12-9-9-9-9-9-9-9-9---|
B|-------------------------------------------------------------------------------|
G|-------------------------------------------------------------------------------|
D|-------------------------------------------------------------------------------|
A|-------------------------------------------------------------------------------|
E|-------------------------------------------------------------------------------|
 |      When will I see you again?           When will I see you again?          |
 | GUITAR 2                                                                      |
e|-------------------------------------------------------------------------------|
B|7-------------------------------------9----------------------6-----------------|
G|7-------------------------------------9----------------------6-----------------|
D|7-(Fast downstrokes)------------------9--(Fast downstrokes)--6(Fastdownstrokes)|
A|5-------------------------------------7----------------------4-----------------|
E|-------------------------------------------------------------------------------|


GUITAR 1
B|----7-7-7-7-7-7-7-7-7-7-7-7-7-7-7-7-7-7-7-7-7-7-7-7-7-7-7-7-7-7-7-7-|
G|--------------------------------------------------------------------|
D|--------------------------------------------------------------------|
A|--------------------------------------------------------------------|
E|--------------------------------------------------------------------|
 |   Scratch your name upon my lips, scratch your name upon my lips   |
 | GUITAR 2                                                           |
e|--------------------------------------------------------------------|
B|--------------------------------------------------------------------|
G|----7--------------------------------7------------------------------|
D|----9-(Fast downstrokes)-------------9-(Fast downstrokes)-----------|
A|----9--------------------------------9------------------------------|
E|----7--------------------------------7------------------------------|


GUITAR 1
B|----7-7-7-7-7-7-7-7-7-7-7-7-7-7-7-7-7-7-7-7-7-7-7-7-7-7-7-7-7-7-7-7-|
G|--------------------------------------------------------------------|
D|--------------------------------------------------------------------|
A|--------------------------------------------------------------------|
E|--------------------------------------------------------------------|
 |     Scratch your name upon my lips, scratch your name upon my lips |
 | GUITAR 2                                                           |
e|--------------------------------------------------------------------|
B|--------------------------------------------------------------------|
G|----7--------------------------------7------------------------------|
D|----9-(Fast downstrokes)-------------9-(Fast downstrokes)-----------|
A|----9--------------------------------9------------------------------|
E|----7--------------------------------7------------------------------|

That's it! :)





Comments


Popular The Courteeners tabs & chords
Cross My Heart And Hope To Fly Chords
Forget The Weight Of The World Chords
How Come 1 Chords
Not Nineteen Forever Chords
You Overdid It Doll 2 Chords
Are You In Love With A Notion Tabs
Kings Of The New Road Tabs
Lose Control Ukulele
No You Didnt No You Dont Ukulele
Whites Of Her Eyes Ukulele


Song lyrics



↑ Back to top | Tablatures and chords are parodies/interpretations of the original songs. You may use it for private study, scholarship, research or language learning purposes only
© 2014 AZChords.com Contact us | Privacy policy | DMCA | Add/correct tabs | Request tabs | Top 50 tabs