» » »

Please Dont Bass tabs (ver.1)

Artists:  A B C D E F G H I J K L M N O P Q R S T U V W X Y Z # 

Please Dont Bass tabs (ver.1)

The Courteeners
Rating:
0/5 (0 votes)

Hard to play? Try these video lessons and learn fast.
                'Please Don't', performed by The Courteeners
Bass Tab - by Daniel Crossley (Cloud010101)



We coulda got married, you could of carried some, of my...

G|------------------------------------------------|
D|--5-55------------------------------------------|
A|----------7-77----3-33----5-55------------------|
E|------------------------------------------------|	x7


so...

G|------------------------------------------------|
D|--55--------------------------------------------|
A|----------777----33----555----------------------|
E|------------------------------------------------|	x2



Bridge


G|------------------------------------------------|
D|------------------------------------------------|
A|---3-33----3-33--------5-55----5-55-------------|
E|------------------------------------------------|


G|------------------------------------------------|
D|------------------------------------------------|
A|---3-33----3-33--------5-55----5-303------------|
E|------------------------------------------------|



How Come...


G|------------------------------------------------|
D|--5-55------------------------------------------|
A|----------7-77----3-33----5-55------------------|
E|------------------------------------------------|	x2


G|------------------------------------------------|
D|--5-55--579--75---------------------------------|
A|------------------3-33----5-55------------------|
E|------------------------------------------------|


G|------------------------------------------------|
D|--5-55------------------------------------------|
A|----------7-77----3-33----5-55------------------|
E|------------------------------------------------|


G|------------------------------------------------|
D|--5-55------------------------------------------|
A|----------7-77----3333----555-------------------|
E|------------------------------------------------|



It's got f**k all to do with me...

G|------------------------------------------------|
D|--55--------------------------------------------|
A|----------777----33----555----------------------|
E|------------------------------------------------|	x2


G|------------------------------------------------|
D|--55555555--------------------------------------|
A|-----------77777777-33333333-55555555-----------|
E|------------------------------------------------|	x2



G|------------------------------------------------|
D|--555555555555555-------------------------------|
A|------------------------------------------------|
E|------------------------------------------------|
            
Hard to play? Try these video lessons and learn fast. | Correct




comments powered by Disqus
↑ Back to top | Tablatures and chords are parodies/interpretations of the original songs. You may use it for private study, scholarship, research or language learning purposes only