» » »

Kings Of The New Road Tabs (ver.1)

Artists:  A B C D E F G H I J K L M N O P Q R S T U V W X Y Z # 

Kings Of The New Road Tabs (ver.1)

The Courteeners
Rating:
5/5 (2 votes)

Hard to play? Try these video lessons and learn fast.
                INTRO

e|-15--14--12-|
b|------------|
g|------------|
d|------------|
a|------------|
e|------------|

riff
    p.m
e|---------|     |-------|
b|---------|     |-5--7--|
g|---------|     |-5--7--|
d|-2-2-2-2-| x3  |-5--7--|
a|-2-2-2-2-|     |-3--5--|
e|-0-0-0-3-|     |-------|

verse

e|-------|
b|-------|
g|-7---9-|
d|---9---|
a|-------|
e|-------|

"chorus"

e|--12---------12---------12---------15-15-14-14-14-|
b|-(15)-15b17-(15)-15b17-(15)-15b17--15-15-15-15-15-|
g|--------------------------------------------------|
d|--------------------------------------------------|
a|--------------------------------------------------|
e|--------------------------------------------------|

x2

BRIDGE

the kings of the new road

e|-----------|
b|-----------|
g|-----9-9---|
d|---9-----9-|
a|-7---------|
e|-----------|


e|--12---------12---------12---------15-15-14-14-14-|
b|-(15)-15b17-(15)-15b17-(15)-15b17--15-15-15-15-15-|
g|--------------------------------------------------|
d|--------------------------------------------------|
a|--------------------------------------------------|
e|--------------------------------------------------|
            
Hard to play? Try these video lessons and learn fast. | Correct




comments powered by Disqus
↑ Back to top | Tablatures and chords are parodies/interpretations of the original songs. You may use it for private study, scholarship, research or language learning purposes only