>
 >
Angel To You (Devil To Me)

Angel To You (Devil To Me) Guitar Tabs

The Click Five - Angel To You (Devil To Me) chords, tabs, tablatures, lyrics

Guitar lessons | Add/correct | Request | Top 50 tabs Artists:  A B C D E F G H I J K L M N O P Q R S T U V W X Y Z 0-9

Angel To You (Devil To Me) Guitar Tabs – The Click Five

CD, Sheet music, Poster

Do you like Angel To You (Devil To Me)? Share with your friends now
TabsTabs v2
The Click Five
Angel To You, Devil To Me
Tuning: Standard

Intro:
|-----------------------------------------------------|
|-----------------------------------------------------|
|----------13-15-15b17-15p13-15---13-15b17--15-13-----|
|----13-15--------------------------------------------|
|-15--------------------------------------------------|
|-----------------------------------------------------| (x2)

Verse:
|-------------------------------------------------------------------|
|-------------------------------------------------------------------|
|-------------------------------------------------------------------|
|-------------------------------------------------------------6-6-6-|
|--3-3-3-4-4-4-4-6-6-6-6-----------3-3-3-4-4-4-4--------------6-6-6-|
|------------------------4-4-4-4-4---------------6-6-6-6-6-6--4-4-4-|
PM|---------------------------------------------------------|

|--------------------------------------------------1--3--4----------|
|--------------------------------------------------1--3--4----------|
|--------------------------------------------------2--4--5----8-8-8-|
|--------------------------------------------------3--5--6----8-8-8-|
|--3-3-3-4-4-4-4-6-6-6-6-----------3-3-3-4-4-4-4---3--5--6----6-6-6-|
|------------------------4-4-4-4-4-----------------1--3--4----------|
PM|---------------------------------------------|

|---------------------------------------------------------------------|
|---------------------------------------------------------------------|
|-----------------------------8-8-8----------------------------8-8-8--|
|-----------------------------8-8-8----------------------------8-8-8--|
|------------1-3-4-4-3-3-1-1--6-6-6-----------1-3-4-4-3-3-6-6--6-6-6--|
|--3-4-4-4-4------------------------3-4-4-4-4-------------------------|
PM|-------------------------|    PM|-------------------------|

Chorus:
|-----------------------------------------------------------------|
|-----------------------------------------------------------------|
|-------------------------8-8-8-8-6-6-6-6-5-5-5-5-3-3-3-3-8-8-8-8-|
|-6-6-6-6-5-5-5-5-3-3-3-3-8-8-8-8-6-6-6-6-5-5-5-5-3-3-3-3-8-8-8-8-|
|-6-6-6-6-5-5-5-5-3-3-3-3-6-6-6-6-4-4-4-4-3-3-3-3-1-1-1-1-6-6-6-6-|
|-4-4-4-4-3-3-3-3-1-1-1-1-----------------------------------------|

|------------------------------------------------------------------|
|------------------------------------------------------------------|
|-------------------------8-8-8-8-6-6-6-6-5-5-5--3---------3--3----|
|-6-6-6-6-5-5-5-5-3-3-3-3-8-8-8-8-6-6-6-6-5-5-5--3---------3--3----|
|-6-6-6-6-5-5-5-5-3-3-3-3-6-6-6-6-4-4-4-4-3-3-3--1---------1--1----|
|-4-4-4-4-3-3-3-3-1-1-1-1------------------------------------------|

Guitar Riff:
|-----------------------------------------------------|
|-----------------------------------------------------|
|----------13-15-15b17-15p13-15---13-15b17--15-13-----|
|----13-15--------------------------------------------|
|-15--------------------------------------------------|
|-----------------------------------------------------| (x2)


Verse 2:
|-------------------------------------------------------------------|
|-------------------------------------------------------------------|
|-------------------------------------------------------------------|
|-------------------------------------------------------------6-6-6-|
|--3-3-3-4-4-4-4-6-6-6-6-----------3-3-3-4-4-4-4--------------6-6-6-|
|------------------------4-4-4-4-4---------------6-6-6-6-6-6--4-4-4-|
PM|---------------------------------------------------------|

|--------------------------------------------------1--3--4----------|
|--------------------------------------------------1--3--4----------|
|--------------------------------------------------2--4--5----8-8-8-|
|--------------------------------------------------3--5--6----8-8-8-|
|--3-3-3-4-4-4-4-6-6-6-6-----------3-3-3-4-4-4-4---3--5--6----6-6-6-|
|------------------------4-4-4-4-4-----------------1--3--4----------|
PM|---------------------------------------------|

|---------------------------------------------------------------------|
|---------------------------------------------------------------------|
|-----------------------------8-8-8----------------------------8-8-8--|
|-----------------------------8-8-8----------------------------8-8-8--|
|------------1-3-4-4-3-3-1-1--6-6-6-----------1-3-4-4-3-3-6-6--6-6-6--|
|--3-4-4-4-4------------------------3-4-4-4-4-------------------------|
PM|-------------------------|    PM|-------------------------|


Chorus: (1:23)
|-----------------------------------------------------------------|
|-----------------------------------------------------------------|
|-------------------------8-8-8-8-6-6-6-6-5-5-5-5-3-3-3-3-8-8-8-8-|
|-6-6-6-6-5-5-5-5-3-3-3-3-8-8-8-8-6-6-6-6-5-5-5-5-3-3-3-3-8-8-8-8-|
|-6-6-6-6-5-5-5-5-3-3-3-3-6-6-6-6-4-4-4-4-3-3-3-3-1-1-1-1-6-6-6-6-|
|-4-4-4-4-3-3-3-3-1-1-1-1-----------------------------------------|

|------------------------------------------------------------------|
|------------------------------------------------------------------|
|-------------------------8-8-8-8-6-6-6-6-5-5-5--3---------5--6----|
|-6-6-6-6-5-5-5-5-3-3-3-3-8-8-8-8-6-6-6-6-5-5-5--3---------5--6----|
|-6-6-6-6-5-5-5-5-3-3-3-3-6-6-6-6-4-4-4-4-3-3-3--1---------3--4----|
|-4-4-4-4-3-3-3-3-1-1-1-1------------------------------------------|


Interlude: (1:43)
Fm  G#  C#  Fm  D#  

Bbm  Cm  C#  Cm  Bbm  D#


Guitar Solo: (1:59)
|----------------------------------------13-------------------|
|--------------------------------------------------------16---|
|-----------------13-12-13--15b17rb=17------15pb17=-13--------|
|--------------13---------------------------------------------|
|-----11-13s15------------------------------------------------|
|-/11---------------------------------------------------------|

|------------------------------------------------------------------|
|-13-14-16p14p13----14-13----13------------------------------------|
|----------------15-------15----15-13-12----13-12----12------------|
|----------------------------------------15-------15----15-14-13~\-|
|------------------------------------------------------------------|
|------------------------------------------------------------------|

|--------------------------------------------------------16~---|
|-----------------------------9-------13-------16-----16-------|
|-------------------------------------------17-----17----------|
|----6-8s10-8p6--8p6~----8-10------13----15--------------------|
|-/8----------------------------15-----------------------------|
|--------------------------------------------------------------|

|-13--------13-------------13-------------------------------------------|
|----16b18=----16-13----------16-13-12----------------------------------|
|--------------------15b17-------------15-13-15-15-13----13-------------|
|-----------------------------------------------------15-----15-14-13---|
|-----------------------------------------------------------------------|
|-----------------------------------------------------------------------|

|------------|
|-15=b16~----|
|------------|
|------------|
|------------|
|------------|

(She's an angel to you...) (2:16)
|-------------------------------------------------------------------------|
|-13--14-14-14--13\-------9-9-11-11-11--9\--------------------------------|
|-13--15-15-15--13\-------8-8-10-10-10--8\--------------------------------|
|--------------------------------------------------6~~--8~~--10~~--8~~----|
|-------------------------------------------------------------------------|
|-------------------------------------------------------------------------|

[Chorus] x2

Outro Guitar Riff:
|-----------------------------------------------------|
|-----------------------------------------------------|
|----------13-15-15b17-15p13-15---13-15b17--15-13-----|
|----13-15--------------------------------------------|
|-15--------------------------------------------------|
|-----------------------------------------------------| (x3)

|---------------------------------|
|---------------------------------|
|----------13-15-15b17-15p13-15---|
|----13-15------------------------|
|-15------------------------------|
|---------------------------------|

Chords:
Fm:    133111
G#:    466544
C#:    x4666x
Cm:    x35543
Bbm:   x13321
D:     x6888x





Comments


Popular The Click Five tabs & chords
Good Day Bass Tabs
All I Need Is You 1 Chords
Dont Let Me Go 3 Chords
Flipside Chords
I Quit! I Quit! I Quit! 1 Chords
Just The Girl 3 Chords
Mary Jane 3 Chords
Don't Let Me Go 1 Tabs
Empty Tabs
Jenny 2 Ukulele


Song lyrics



↑ Back to top | Tablatures and chords are parodies/interpretations of the original songs. You may use it for private study, scholarship, research or language learning purposes only
© 2014 AZChords.com Contact us | Privacy policy | DMCA | Add/correct tabs | Request tabs | Top 50 tabs