» » »

The Cab, That 70's Song Bass tabs (ver.1)

Artists:  A B C D E F G H I J K L M N O P Q R S T U V W X Y Z # 

That 70's Song Bass tabs (ver.1)

The Cab Tabs
 Rating:
4/5 (4 votes)
That 70's Song lessons Tabs too difficult? Try these video lessons and learn fast
                ----------------------------------------------------------------------------
			     THAT 70s SONG - The Cab
----------------------------------------------------------------------------


I think it's quite correct. E-mail me if you find any mistakes.

Tuning: Standard

Verse
G|-------------------------------------------------------------------------|
D|-----------------2-2-----------------------------------------------------|
A|---3-3----5-5-----------5-5----7-7----3-3-----------x5-------------------|
E|-------------------------------------------------------------------------|

Pre-Chorus
G|-------------------------------------------------------------------------|
D|-------------------------------------------------------------------------|
A|---5-------5/7--------5/7---------7/11-----------------------------------|
E|-------------------------------------------------------------------------|

Chorus
G|-------------------------------------------------------------------------|
D|-------------------------------------------------------------------------|
A|---33333333--55555555--77777777--33333333--x2----7----5----3----7\-------|
E|-------------------------------------------------------------------------|

Fill
G|-------------------------------------------------------------------------|
D|-------------------------------------------------------------------------|
A|-----3--5----5--3----3---------------------------------------------------|
E|-------------------------------------------------------------------------|

Verse
G|-------------------------------------------------------------------------|
D|-----------------2-2-----------------------------------------------------|
A|---3-3----5-5-----------5-5----7-7----3-3-----------x4-------------------|
E|-------------------------------------------------------------------------|

Pre-Chorus
G|-------------------------------------------------------------------------|
D|-------------------------------------------------------------------------|
A|---5-------5/7--------5/7---------7/11-----------------------------------|
E|-------------------------------------------------------------------------|

Chorus
G|-------------------------------------------------------------------------|
D|-------------------------------------------------------------------------|
A|---33333333--55555555--77777777--33333333--x2----7----5----3----7\-------|
E|-------------------------------------------------------------------------|

Fill
G|-------------------------------------------------------------------------|
D|-------------------------------------------------------------------------|
A|-----3--5----5--3----3---------------------------------------------------|
E|-------------------------------------------------------------------------|

Verse
G|-------------------------------------------------------------------------|
D|-----------------2-2-----------------------------------------------------|
A|---3-3----5-5-----------5-5----7-7----3-3-----------x2-------------------|
E|-------------------------------------------------------------------------|

Pre-Chorus
G|-------------------------------------------------------------------------|
D|-------------------------------------------------------------------------|
A|---5-------5/7--------5/7---------7/11-----------------------------------|
E|-------------------------------------------------------------------------|

Chorus
G|-------------------------------------------------------------------------|
D|-------------------------------------------------------------------------|
A|---33333333--55555555--77777777--33333333--x4----7----5----3----7\-------|
E|-------------------------------------------------------------------------|


| /  slide up
| \  slide down
| h  hammer-on
| p  pull-off
| ~  vibrato
| +  harmonic
| x  Mute note
============================================================================
            
Submit corrections

comments powered by Disqus
↑ Back to top | The Cab Bass for That 70's Song. Lyrics for acoustic guitar and electric guitar. Tablatures and chords are parodies/interpretations of the original songs. You may use it for private study, scholarship, research or language learning purposes only