>
 >
That 70s Song

That 70s Song Guitar Tabs

The Cab - That 70s Song chords, tabs, tablatures, lyrics

Guitar lessons | Add/correct | Request | Top 50 tabs Artists:  A B C D E F G H I J K L M N O P Q R S T U V W X Y Z 0-9

That 70s Song Guitar Tabs – The Cab

CD, Sheet music, Poster

Do you like That 70s Song? Share with your friends now
TabsUkulele
-------------------------------------------------------------------------------
                             That 70s Song - The Cab
-------------------------------------------------------------------------------

 The intro is sort of a solo so i tabbed it too. Probably isn't perfect but its close. enjoy


Tuning:Standard


Intro (0:00)

e|--------------------------------------------|
B|--8-8-----8---8------8--8--10--8------------|
G|--x-x-----x---x------x--x--x---x------------|      x3
D|--5-5-----5---5------5--5--7---5------------|
A|--------------------------------------------|
E|--------------------------------------------|

e|--------------------------------------------|
B|--8-8-----8---8------12-12-12-12-12/13------|
G|--x-x-----x---x------x--x--x--x--x--x-------|
D|--5-5-----5---5------9--9--9--9--9-/10------|
A|--------------------------------------------|
E|--------------------------------------------|

Solo (2:24)

e|-------------------------13---------------------------------19-20-----------|
B|-------------------15b17----17br15-----20b22--20b22-------------------------|
G|---17-17--14--17------------------------------------------------------------|
D|--(17-17)-------------------------------------------------------------------|
A|----------------------------------------------------------------------------|
E|----------------------------------------------------------------------------|


e|--19b20--19--17-----17----17----------------------------------------------|
B|----------------20-----20------20--17--------------------17--13-----------|
G|--------------------------------------19b20br19--17--19----------14-------|
D|--------------------------------------------------------------------------|
A|--------------------------------------------------------------------------|
E|--------------------------------------------------------------------------|

e|----------------------------------------------20b22br20------22b24--------|
B|--------17h20p17----------------20b22-20-17-------------------------------|
G|---19b21--------21br19-17------------------17-----------------------------|
D|--------------------------19-17-------------------------------------------|
A|--------------------------------------------------------------------------|
E|--------------------------------------------------------------------------|

e|-22-22-20-17-17--20/-------------20--15-----------------------------------|
B|----------------------15/17~~~~~---------17/15-13-15-15b17--15-12-13-12---|
G|--------------------------------------------------------------------------|
D|--------------------------------------------------------------------------|
A|--------------------------------------------------------------------------|
E|--------------------------------------------------------------------------|

e|--------------------------------------------------------------------------|
B|-8-8-10-8-----------------------------------------------------------------|
G|----------9-7-9-7----7-9--------------------------------------------------|
D|------------------10------------------------------------------------------|
A|--------------------------------------------------------------------------|
E|--------------------------------------------------------------------------|

************************************

| /   slide up
| \   slide down
| h   hammer-on
| p   pull-off
| ~   vibrato
| +   harmonic
| x   Mute note
| b   Bend
| pb  Pre-bend
| br  Bend release
| pbr Pre-bend release
| brb Bend release bend

************************************





Comments


Popular The Cab tabs & chords
Bounce 1 Bass Tabs
Diamonds Are Forever Chords
Falling Up Chords
One Of Those Nights Chords
Vegas Skies 1 Chords
High Hopes In Velvet Tabs
Living Louder Tabs
Intoxicated Ukulele
Temporary Bliss Ukulele
That 70s Song Ukulele


Song lyrics



↑ Back to top | Tablatures and chords are parodies/interpretations of the original songs. You may use it for private study, scholarship, research or language learning purposes only
© 2014 AZChords.com Contact us | Privacy policy | DMCA | Add/correct tabs | Request tabs | Top 50 tabs