>
 >
That 70's Song

That 70's Song Guitar Tabs

The Cab - That 70's Song chords, tabs, tablatures, lyrics

Guitar lessons | Add/correct | Request | Top 50 tabs Artists:  A B C D E F G H I J K L M N O P Q R S T U V W X Y Z 0-9

That 70's Song Guitar Tabs – The Cab

CD, Sheet music, Poster

Do you like That 70's Song? Share with your friends now
Bass TabsChordsTabsTabs v2
Sorry for the first tab I made. It was quite awful.
Here it is!

-----------------------------------------------------------------------------
-----------------------------------------------------------------------------

Tuning: Drop D or Standard (just convert it, i'll make the tabs for drop D)

Intro 
e|--------------------------------------------------------------------------|
B|--------------------------------------------------------------------------|
G|------------------------5-5---7-7-----------------------------------------|
D|--3-3---5-5---7-7~------5-5---7-7---7-7~----------------------------------|
A|--3-3---5-5---7-7~------3-3---5-5---7-7~----------------------------------|
D|--3-3---5-5---7-7~------------------7-7~----------------------------------|

Verse
e|--------------------------------------------------------------------------|
B|--------------------------------------------------------------------------|
G|------------------------5-5---7-7-----------------------------------------|
D|--3-3---5-5---7-7~------5-5---7-7---7-7~------(2x)------------------------|
A|--3-3---5-5---7-7~------3-3---5-5---7-7~----------------------------------|
D|--3-3---5-5---7-7~------------------7-7~----------------------------------|
And lately... ...supply your demands

Pre-Chorus
e|------------------------------------------||----(8888888888888888)--------|
B|------------------------------------------||------------------------------|
G|------------------------5-5---7-7---------||------------------------------|
D|--3-3---5-5---7-7~------5-5---7-7---7-7~-(2x)----5555555555555555-----(2x)|
A|--3-3---5-5---7-7~------3-3---5-5---7-7~--||-----5555555555555555---------|
D|--3-3---5-5---7-7~------------------7-7~--||-----5555555555555555---------|
   You say...                               tonight...  but tonight
                                            *the e string part is optional

Chorus
e|-----------------------------------------------||-------------------------|
B|-----------------------------------------------||-------------------------|
G|-----------------------------------------------||-------------------------|
D|------33333333-55555555-22222222-33332222------||---7~--5~--3~------------|
A|------33333333-55555555-22222222-33333333-(2x)-||---7~--5~--3~------------|
D|------33333333-55555555-22222222-33333333------||---7~--5~--3~------------|
Baby we belong alone...   ...another you at home...

Post Chorus
e|--------------------------------------------------------------------------|
B|---88888888-9-9-9-9-9-9-9-9--88888888-9-9-9-9-9-9-9-9---------------------|
G|---99999999-1010101010101010-99999999-1010101010101010--------------------|
D|---99999999-1010101010101010-99999999-1010101010101010--------------------|
A|---77777777-8-8-8-8-8-8-8-8--77777777-8-8-8-8-8-8-8-8---------------------|
D|--------------------------------------------------------------------------|
Da-Da-Da-Da-Da-Da-Da-Da! *I'm not sure but there are mute notes in this part

Verse
e|--------------------------------------------------------------------------|
B|--------------------------------------------------------------------------|
G|------------------------5-5---7-7-----------------------------------------|
D|--3-3---5-5---7-7~------5-5---7-7---7-7~----------------------------------|
A|--3-3---5-5---7-7~------3-3---5-5---7-7~----------------------------------|
D|--3-3---5-5---7-7~------------------7-7~----------------------------------|
And lately... ...with my stare

Pre-Chorus
e|------------------------------------------||----(8888888888888888)--------|
B|------------------------------------------||------------------------------|
G|------------------------5-5---7-7---------||------------------------------|
D|--3-3---5-5---7-7~------5-5---7-7---7-7~-(2x)----5555555555555555-----(2x)|
A|--3-3---5-5---7-7~------3-3---5-5---7-7~--||-----5555555555555555---------|
D|--3-3---5-5---7-7~------------------7-7~--||-----5555555555555555---------|
   You say...                               tonight...  but tonight

Chorus
e|-----------------------------------------------||-------------------------|
B|-----------------------------------------------||-------------------------|
G|-----------------------------------------------||-------------------------|
D|------33333333-55555555-22222222-33332222------||---7~--5~--3~------------|
A|------33333333-55555555-22222222-33333333-(2x)-||---7~--5~--3~------------|
D|------33333333-55555555-22222222-33333333------||---7~--5~--3~------------|
Baby we belong alone...   ...another you at home...

Post Chorus
e|--------------------------------------------------------------------------|
B|---88888888-9-9-9-9-9-9-9-9--88888888-9-9-9-9-9-9-9-9---------------------|
G|---99999999-1010101010101010-99999999-1010101010101010--------------------|
D|---99999999-1010101010101010-99999999-1010101010101010--------------------|
A|---77777777-8-8-8-8-8-8-8-8--77777777-8-8-8-8-8-8-8-8---------------------|
D|--------------------------------------------------------------------------|
Da-Da-Da-Da-Da-Da-Da-Da!

Adlib (Rhythm / Acoustic Guitar)
**You may do PreChorus thing or this:
e|------------------3333333------------||-----------------------------------|
B|--111111111111111-3333333--11111111--||---1111111111111111----------------|
G|--222222222222222----------22222222-(2x)----------------------------------|
D|--333333333333333----------22222222--||---2222222222222222----------------|
A|--333333333333333-2222222------------||---3333333333333333----------------|
D|-----(F)------------(G)------(Am)----||----------(C)----------------------|
                                         You can notice this change of chord

Chorus
e|-----------------------------------------------||-------------------------|
B|-----------------------------------------------||-------------------------|
G|-----------------------------------------------||-------------------------|
D|------33333333-55555555-22222222-33332222-----(2x)------------------------|
A|------33333333-55555555-22222222-33333333------||-------------------------|
D|------33333333-55555555-22222222-33333333------||-------------------------|
Baby we belong alone...   ...another you at home...

Last Chorus
e|-----------------------------------------------||-------------------------|
B|-----------------------------------------------||-------------------------|
G|-----------------------------------------------||-------------------------|
D|------33333333-55555555-22222222-33332222------||---7~--5~--3~------------|
A|------33333333-55555555-22222222-33333333------||---7~--5~--3~------------|
D|------33333333-55555555-22222222-33333333------||---7~--5~--3~------------|
Baby we belong alone...   ...another you at home...



| /  slide up
| \  slide down
| h  hammer-on
| p  pull-off
| ~  vibrato
| +  harmonic
| x  Mute note
============================================================================





Comments


Popular The Cab tabs & chords
Angel With A Shotgun 3 Chords
Bad Chords
Can You Keep A Secret? Chords
Endlessly 5 Chords
High Hopes In Velvet Chords
Intoxicated 1 Chords
I Want To Break Free Tabs
One Of Those Nights Tabs
The Pub Intro Tabs
Her Love Is My Religion Ukulele


Song lyrics



↑ Back to top | Tablatures and chords are parodies/interpretations of the original songs. You may use it for private study, scholarship, research or language learning purposes only
© 2014 AZChords.com Contact us | Privacy policy | DMCA | Add/correct tabs | Request tabs | Top 50 tabs