» » »

Stage Fright Bass tabs (ver.2)

Artists:  A B C D E F G H I J K L M N O P Q R S T U V W X Y Z # 

Stage Fright Bass tabs (ver.2)

The Band
Rating:
5/5 (1 vote)

Tabs too difficult? Try these video lessons and learn fast.
                ++++++++++++++++++++++++++
| The Band- Stage Fright |
++++++++++++++++++++++++++


"He gets to sing just like a bird..."



Tuning: EADG


Intro
1.
G|-----------------------------------------------------|
D|-----------------------------------------------------|
A|-3~-3-33-33-3-1~-1-11-11-1-------------------------2-|
E|---------------------------1~-1-11-11-0-3~-3-33-33---|

2.
G|----------------------------------------------------|
D|----------------------------------------------------|
A|-3~-3-33-33-3-1~-1-11-11-1--------------5~-5---5~-6-|
E|---------------------------1~-1-11-11-0------5------|

Verse
"Now deep in the heart..."
3.
G|----------------------------------------------------------|
D|-------7~---7\5~-------------------7~---7\5~--------------|
A|-7~---------------5~--3~--2-6-7~--------------5~--3~--2-5-|
E|----------------------------------------------------------|

Chorus
"See the man with the stage fright..."
4.
G|----------------------------------------------------------------|
D|-5~----7~----3~------5~--------5~----7~---7-5-3~---3-2-0~---0/4-|
A|-----------------5~--------5/9----------------------------------|
E|----------------------------------------------------------------|

Outro
5.
G|---------------7h9p7--------|
D|-5~------------------9-7----|
A|-------------------------10-|
E|----------------------------|

Verse
"I've got fire water..."
6.
G|----------------------------------------------------------|
D|-------7~---7\5~-------------------7~---7\5~--------------|
A|-7~---------------5~--3~--2-6-7~--------------5~--3~--2-5-|
E|----------------------------------------------------------|

Chorus
"See the man with the stage fright..."
7.
G|-----------------------------------------------------------------|
D|-5~----7~---7\3~------5~--------5~----7~---7-5-3~---3-2-0~---0/4-|
A|------------------5~--------5/9----------------------------------|
E|-----------------------------------------------------------------|

Outro
8.
G|-------------------|
D|-5~----------------|
A|-------------------|
E|-------------------|

Bridge
"Now if he says that he's afraid..."
9.
G|---------4-2--------------------------4-2---------------------|
D|-4~--4~------4-2---------5~----4~--4~-----4-2-----------------|
A|-----------------3~--5~-----------------------3~--4~--5~--5h6-|
E|--------------------------------------------------------------|

Solo
10.
G|-----------------------------------------------|
D|-----------------------------------------------|
A|-7~-7-7-77--3~-33-3-3-3-1~-11----------------2-|
E|------------------------------1~-11-3~-3-3-3---|

11.
G|--------------------------------------------------|
D|--------------------------------------------------|
A|3~--3-3-3-3-1~-11-1-1-1-------------------------2-|--x2
E|------------------------1~-11-1-1-0-3~-33-3-3-33--|

12.
G|----------------------------------------------------------------------|
D|----------------------------------------------------------------------|
A|-3~-3-33-33-3-1~-1-11-11-1--------------5~-5---5~-6-7~----12\7~----2/-|
E|---------------------------1~-1-11-11-0------5------------------------|

Verse
"Your brow is sweating..."
13.
G|----------------------------------------------------------|
D|-------7~---7\5~-------------------7~---7\5~--------------|
A|-7~---------------5~--3~--2-6-7~--------------5~--3~--2-5-|
E|----------------------------------------------------------|

Chorus
"See the man with the stage fright..."
14.
G|----------------------------------------------------------------|
D|-5~----7~---7\3~------5~--------5~----7~---7-5-3~---3-2-0~---0~-|
A|------------------5~--------5/9---------------------------------|
E|----------------------------------------------------------------|

Outro
"He wants to start all over again..."
15.
G|-----------------------------------------------------|
D|-5~------5\4\3~----------------5~--5\4\3~------------|
A|-------------------5~--3~--------------------5~--3~--|
E|---------------------------3~------------------------|

16.
G|---------------------------------------------------------------|
D|-----5~--5\4\3~----------------5~--5\4\3~----------------------|
A|-------------------5~--3~--------------------5~--3~------------|
E|-3~------------------------3~------------------------3~--------|


Please rate thanks!!


Lyrics:

Now deep in the heart of a lonely kid
Who suffered so much for what he did,
They gave this ploughboy his fortune and fame,
Since that day he ain't been the same.

See the man with the stage fright
Just standin' up there to give it all his might.
And he got caught in the spotlight,
But when we get to the end
He wants to start all over again.

I've got fire water right on my breath
And the doctor warned me I might catch a death.
Said, "You can make it in your disguise,
Just never show the fear that's in your eyes.

Now if he says that he's afraid,
Take him at his word.
And for the price that the poor boy has paid,
He gets to sing just like a bird

Your brow is sweatin' and your mouth gets dry,
Fancy people go driftin' by.
The moment of truth is right at hand,
Just one more nightmare you can stand.



+++++++++++
| Raileff |
+++++++++++
            
Tabs too difficult? Try these video lessons and learn fast.




comments powered by Disqus
↑ Back to top | Tablatures and chords are parodies/interpretations of the original songs. You may use it for private study, scholarship, research or language learning purposes only