» » »

The Band, Stage Fright Bass tabs (ver.1)

Artists:  A B C D E F G H I J K L M N O P Q R S T U V W X Y Z # 

Stage Fright Bass tabs (ver.1)

The Band Tabs
 Rating:
4.2/5 (5 votes)
Stage Fright lessons Tabs too difficult? Try these video lessons and learn fast
                The Band
Bass Tab
Original Bassist: Rick Danko

Tempo=112BPM, 4/4 Time

Intro

||----------|---------|---------|------||
||o---------|---------|---------|-----o||
||o---------|---------|---------|-----o||
||----------|---------|---------|------||

|---------------|---------------|---------------|----------------|
|---------------|---------------|---------------|----------------|
|-3--3-3-3-x3-3-|-1--1-1-1-x1-1-|---------------|--------------0-|
|---------------|---------------|-1--1-1-1-x1-1-|-3--3-33-3-x3---|

|---------------|---------------|---------------|-------------|
|---------------|---------------|---------------|-------------|
|-3--3-3-3-x3-3-|-1--1-1-1-x1-1-|---------------|-5---0-5--6--|
|---------------|---------------|-1--1-1-1-x1-3-|-------------|

Verse

|----------|------------|------------|--------------|
|----------|-7------7\--|-5----------|--------------|
|-7--------|------------|------5---3-|-(3)----2--56-|
|----------|------------|------------|--------------|

|----------|------------|-----------|------------|
|----------|-7------7\--|-5---------|------------|
|-7--------|------------|------5----|-3----22-5--|
|----------|------------|-----------|------------|

Chorus

|----------|----------|-----------|-----------|
|-5--------|-7--------|-3---------|-5---------|
|----------|----------|------5----|--------5--|
|----------|----------|-----------|-----------|

|----------|------------|------------|-----------|
|-5--------|-7----7--5--|-3----3--2--|-----------|
|----------|------------|------------|-5------7--|
|----------|------------|------------|-----------|

|----------|----7/9-7-------|
|-5--------|----------9-7-5-|
|----------|----------------|
|----------|----------------|

Verse

|----------|------------|-----------|------------|
|----------|-7------7\--|-5---------|------------|
|-7--------|------------|------5----|-3----2--56-|
|----------|------------|-----------|------------|

|----------|------------|-----------|------------|
|----------|-7------7\--|-5---------|------------|
|-7--------|------------|------5----|-3----2--5--|
|----------|------------|-----------|------------|

Chorus

|----------|------------|-----------|-----------|
|-5--------|-7------7\--|-3---------|-5---------|
|----------|------------|------5----|--------5--|
|----------|------------|-----------|-----------|

|----------|------------|------------|-----------|
|-5--------|-7----7--5--|-3----3--2--|-----------|
|----------|------------|------------|-5------7--|
|----------|------------|------------|-----------|

|------|
|-5----|
|------|
|------|

Bridge

|-----------|-------------|-----------|------|
|-----------|-9--7--------|-----------|-5----|
|-9----9----|-------9--7--|-3----5----|------|
|-----------|-------------|-----------|------|

|-----------|-------------|-----------|-----------|
|-----------|-9--7--------|-----------|-----------|
|-9----9----|-------9--7--|-3----4----|-5------x5-|
|-----------|-------------|-----------|-----------|

Solo

|--------------|--------------|---------------|------------|
|--------------|--------------|---------------|------------|
|-7--x7--7-7-7-|-3--x3--3-3-3-|-1--x1---------|------------|
|--------------|--------------|--------1--1-2-|-3-------3--|

||--------------|-------------|-------------|------------------||
||o-------------|-------------|-------------|-----------------o||
||o-3--x3-3-3-3-|-1--x1-1-1-1-|-------------|-----------------o||
||--------------|-------------|-1--x1-1-1-1-|-3--3-33-3-x3-5---||

|-------------|-------------|-------------|-------------|
|-------------|-------------|-------------|-------------|
|-3--x3-3-3-3-|-1--x1-1-1-1-|-------------|-5---0-5--6--|
|-------------|-------------|-1--x1-1-1-3-|-------------|

|-------------|------------|
|-------------|------------|
|-7------12\--|-7------2/--|
|-------------|------------|

Verse

|----------|------------|------------|--------------|
|----------|-7------7\--|-5----------|--------------|
|-7--------|------------|------5---3-|-(3)----2--56-|
|----------|------------|------------|--------------|

|----------|------------|-----------|-------------|
|----------|-7------7\--|-5---------|-------------|
|-7--------|------------|------5----|-3----2/--5--|
|----------|------------|-----------|-------------|

Chorus

|----------|------------|-----------|-----------|
|-5--------|-7------7\--|-3---------|-5---------|
|----------|------------|------5----|--------5--|
|----------|------------|-----------|-----------|

|----------|------------|------------|-----------|
|-5--------|-7----7--5--|-3----3--2--|-----------|
|----------|------------|------------|-5------7--|
|----------|------------|------------|-----------|

|------|
|-5----|
|------|
|------|

Ending

|------------|--------------|------------|------------|
|-3----------|--------7p-5\-|-3----------|--------5\--|
|------5--3--|--------------|------5--3--|------------|
|------------|-3------------|------------|-3----------|

|------------|------------|------------|------*|
|-3----------|----5----5--|-3----------|------*|
|------5--3--|------------|------5--3--|------*|
|------------|-3----------|------------|-3----*|
            
Submit corrections

comments powered by Disqus
↑ Back to top | The Band Bass for Stage Fright. Lyrics for acoustic guitar and electric guitar. Tablatures and chords are parodies/interpretations of the original songs. You may use it for private study, scholarship, research or language learning purposes only