>
 >
Sometime Around Midnight-lead

Sometime Around Midnight-lead Guitar Tabs

The Airborne Toxic Event - Sometime Around Midnight-lead chords, tabs, tablatures, lyrics

Guitar lessons | Add/correct | Request | Top 50 tabs Artists:  A B C D E F G H I J K L M N O P Q R S T U V W X Y Z 0-9

Sometime Around Midnight-lead Guitar Tabs – The Airborne Toxic Event

CD, Sheet music, Poster

Do you like Sometime Around Midnight-lead? Share with your friends now
Tabs
-------------------------------------------------------------------------------
                             Sometime Around Midnight - The Airborne Toxic Event
-------------------------------------------------------------------------------

Why hello there, uhhh i tabbed out the rythem guitar to this song unregistered but
the other guitar part played by Steven.

It's not 100% but for me i would rate it at about 95% I've been postponing this tab for
while because i wanted to do a full cover of it (bass, bothe guitars, drums, and vocals)
i have no time so here ya go kids



Tuning:EADGBe

intro: nothing

pre-verse : (0:28)
e|---------------------------------------------------------------------------|
B|---------------------------------------------------------------------------|
G|--8888888888888888---------------------------------------------------------|
D|---------------------------------------------------------------------------|
A|---------------------------------------------------------------------------|
E|---------------------------------------------------------------------------|

verse: (0:36)
e|---------------------------------------------------------------------------|
B|----elevens->--1111111111111111-9999999/8----------------------------------|
G|888888888888888--------------------------88888888888888--------------------|
D|---------------------------------------------------------------------------|
A|---------------------------------------------------------------------------|
E|---------------------------------------------------------------------------|

(0:47)x2
e|------------------------------------------------------------------------------|
B|----------------------------------1111111111111111-9999999/8------------------|
G|88888888888888888888888888888888----------------------------8888888888888888--|
D|------------------------------------------------------------------------------|
A|------------------------------------------------------------------------------|
E|------------------------------------------------------------------------------|

(1:18)
e|---------------------------------------------------------------------------|
B|1111111111111111-9999999/8----------------11~--------9~--------------------|
G|--------------------------8888888888888888---------------------------------|
D|---------------------------------------------------------------------------|
A|---------------------------------------------------------------------------|
E|---------------------------------------------------------------------------|

fill (1:30)
e|---------------------------------------------------------------------------|
B|---------------------------------------------------------------------------|
G|---------------------------------------------------------------------------|
D|--Palm mute and strum with the rythem (need delay pedal)-------------------|
A|---------------------------------------------------------------------------|
E|---------------------------------------------------------------------------|

verse 2 (1:37)
e|------------------------------------------------------------------------------|
B|----------------------------------1111111111111111-9999999/8------------------|
G|88888888888888888888888888888888----------------------------8888888888888888--|
D|------------------------------------------------------------------------------|
A|------------------------------------------------------------------------------|
E|------------------------------------------------------------------------------|

(1:53)x2
e|---------------------------------------------------------------------------|
B|1111111111111111-9999999/8-------------------------------------------------|
G|--------------------------8888888888888888---------------------------------|
D|---------------------------------------------------------------------------|
A|---------------------------------------------------------------------------|
E|---------------------------------------------------------------------------|

Fill 2 (2:04)
e|---------------------------------------------------------------------------|
B|---------------------------------------------------------------------------|
G|8888888888888888888888888888888--------------------------------------------|
D|---------------------------------------------------------------------------|
A|---------------------------------------------------------------------------|
E|---------------------------------------------------------------------------|

Verse 3 (2:12)
e|---------------------------------------------------------------------------|
B|---------------------------------------------------------------------------|
G|-8-8-8-8-8-8-8-8-8-8-8-8-8-8-8-8-8-----------------------------------------|
D|8-8-8-8-8-8-8-8-8-8-8-8-8-8-8-8--------------------------------------------|
A|---------------------------------------------------------------------------|
E|---------------------------------------------------------------------------|

(2:19)x2
e|---------------------------------------------------------------------------|
B|--11-11-11-11-11-11-11-11---9-9-9-9-9-9-9/8--------------------------------|
G|-8--8--8--8--8--8--8--8----8-8-8-8-8-8-8-----8-8-8-8-8-8-8-8---------------|
D|--------------------------------------------8-8-8-8-8-8-8-8----------------|
A|---------------------------------------------------------------------------|
E|---------------------------------------------------------------------------|

(2:34)
e|---------------------------------------------------------------------------|
B|--11-11-11-11-11-11-11-11---9-9-9-9-9-9-9/8--------------------------------|
G|-8--8--8--8--8--8--8--8----8-8-8-8-8-8-8-----------------------------------|
D|---------------------------------------------------------------------------|
A|---------------------------------------------------------------------------|
E|---------------------------------------------------------------------------|

(2:38)
e|---------------------------------------------------------------------------|
B|---------------------------------------------------------------------------|
G|-8-8-8-8-8-8-8-8-8-8-8-8-8-8-8-8-8---8-8-8-8-8-8-8-8-8-8-8-8-8-8-8-8-------|
D|8-8-8-8-8-8-8-8-8-8-8-8-8-8-8-8-8---8-8-8-8-8-8-8-8-8-8-8-8-8-8-8-8--------|
A|---------------------------------------------------------------------------|
E|---------------------------------------------------------------------------|

(2:53)x2
e|---------------------------------------------------------------------------|
B|--11-11-11-11-11-11-11-11---9-9-9-9-9-9-9/8--------------------------------|
G|-8--8--8--8--8--8--8--8----8-8-8-8-8-8-8-----8-8-8-8-8-8-8-8---------------|
D|--------------------------------------------8-8-8-8-8-8-8-8----------------|
A|---------------------------------------------------------------------------|
E|---------------------------------------------------------------------------|

(3:09)
e|---------------------------------------------------------------------------|
B|---------------------------------------------------------------------------|
G|---------------------------------------------------------------------------|
D|---nothing-----------------------------------------------------------------|
A|---------------------------------------------------------------------------|
E|---------------------------------------------------------------------------|

fast bridge(3:12)
e|---------------------------------------------------------------------------|
B|---------------------------------------------------------------------------|
G|-88888888------------------------------------------------------------------|
D|-88888888--(x a lot of times, go reallyyyyy fast!)-------------------------|
A|-66666666------------------------------------------------------------------|
E|---------------------------------------------------------------------------|

fast bridge 2 (3:21)
e|--(realllyyyyy fastt)------------------------------------------------------|
B|-9(x16)---11(x16)---13(x32)---9(x16)---11(x16)---16(x32)-------------------|
G|---------------------------------------------------------------------------|
D|---------------------------------------------------------------------------|
A|---------------------------------------------------------------------------|
E|---------------------------------------------------------------------------|

Last Verse (3:39)
e|---------------------------------------------------------------------------|
B|-------------------------1111111111111111-9999999/8------------------------|
G|-88888888888888888888888----------------------------8888888888888888-------|
D|-88888888888888888888888----------------------------8888888888888888-------|
A|-66666666666666666666666----------------------------6666666666666666-------|
E|---------------------------------------------------------------------------|

(3:54)
e|---------------------------------------------------------------------------|
B|1111111111111111-99999999/8------------------------------------------------|
G|----------------------------8888888888888888-------------------------------|
D|----------------------------8888888888888888-------------------------------|
A|----------------------------6666666666666666-------------------------------|
E|---------------------------------------------------------------------------|

"you just have to see her, you just have to see her" (4:03)
e|---------------------------------------------------------------------------|
B|1111111111111111-99999999-1111111111111111-99999999-1313131313131313-999999|
G|---------------------------------------------------------------------------|
D|---------------------------------------------------------------------------|
A|---------------------------------------------------------------------------|
E|---------------------------------------------------------------------------|

breakdown! (4:14)
e|---------------------------------------------------------------------------|
B|---------------------------------------------------------------------------|
G|-88888888------------------------------------------------------------------|
D|-88888888--(x a lot of times, go reallyyyyy fast!)-------------------------|
A|-66666666------------------------------------------------------------------|
E|---------------------------------------------------------------------------|

rightous solo (4:21) x3
e|-11-11-11-11-11-11-11------------------------------------------------------|
B|----------------------13-13-13-11-11-11-9-9-8h9-8(~~~~~)last---------------|
G|---------------------------------------------------------------------------|
D|---------------------------------------------------------------------------|
A|---------------------------------------------------------------------------|
E|---------------------------------------------------------------------------|





| /  slide up
| \  slide down
| h  hammer-on
| p  pull-off
| ~  vibrato
| +  harmonic
| x  Mute note
===============================================================================





Comments


Popular The Airborne Toxic Event tabs & chords
Missy Bass Tabs
Changing Chords
Does This Mean You're Moving On? Chords
Half Of Something Else Chords
Missy 1 Chords
Papillon Chords
Welcome To Your Wedding Day Tabs
Gasoline Ukulele
Timeless Ukulele
Welcome To Your Wedding Day Ukulele


Song lyrics



↑ Back to top | Tablatures and chords are parodies/interpretations of the original songs. You may use it for private study, scholarship, research or language learning purposes only
© 2014 AZChords.com Contact us | Privacy policy | DMCA | Add/correct tabs | Request tabs | Top 50 tabs