» » »

The Airborne Toxic Event, Gasoline Bass tabs (ver.1)

Artists:  A B C D E F G H I J K L M N O P Q R S T U V W X Y Z # 

Gasoline Bass tabs (ver.1)

The Airborne Toxic Event Tabs
Rating:
4/5 (3 votes)
Gasoline lessons Tabs too difficult? Try these video lessons and learn fast
                   Intro
G|------------------------|
D|------------------------|
A|1-11-1--11-1-11-1--1----| x6
E|------11---------11-----|

      Pre-Verse
G|--------------------------------------------------------------|
D|---------------------------------------8888888888888-Slide-Up-|
A|66-666-88-888-------------66-666-88-888-----------------------|
E|-------------33-333-66-666------------------------------------|

         Verse
G|----------------------------------------------------------------|
D|----------------------------------------------------------------|
A|----------------------------------------------------------1133--|
E|66-666-566-666-666-666-566-566-33-333-333-333-311-111-1133------|

          Chorus
G|--------------------------------------------------------------|
D|--------------------------------------------------------------|
A|66-666-88-888-------------66-666-88-888-8-66-66666-666666666--|
E|-------------33-333-66-666-------------3----------------------|

         Post-Chorus
G|------------|
D|------------|
A|------------|
E|666666666666|0
   
   Solo 1
G|--------------|
D|--------------|
A|--------------|
E|6-66-66-66666-|

Verse 2 Same As First
Chorus 2 Same As First
Post Chorus Same As First


   Solo 2
G|-------------------------------------------------|
D|-------------------------------------------------|
A|-----------555-5555-55---------------------------|
E|666-6666-66-----------333-3333-33--111-1111-11---|


Thats Basicly The Song Just Listen To Get The Time Right Enjoy 
            

comments powered by Disqus
↑ Back to top | The Airborne Toxic Event Bass for Gasoline. Lyrics for acoustic guitar and electric guitar. Tablatures and chords are parodies/interpretations of the original songs. You may use it for private study, scholarship, research or language learning purposes only