» » »

Cowboy On A Corner Bass tabs (ver.2)

Artists:  A B C D E F G H I J K L M N O P Q R S T U V W X Y Z # 

Cowboy On A Corner Bass tabs (ver.2)

The Abuse
Rating:
0/5 (0 votes)

Hard to play? Try these video lessons and learn fast.
                (Live)
Cowboy on a corner Live at the Iron Post, Champaign IL
Bass by Tim Ayers
Preformed live by The Abuse
All slap bass except on outro! (challenging, but easy)
2 measures of guitar intro

|-----------------------------------|
|-----------------------------------|
|-----7------7------7---7-5---------|
|-00-----00-----00----------7-5-3-0-| Play X2

|------------------------------------------|
|------------------------------------------|
|-----7------55-6-7----------7-5-----------|
|-00-----00----------0-0333------7-5-2-2-2-| Play X2 (Chorus)

|--------------------------------|
|--------------------------------|
|-------7------7--------7-------7|
|-00-0-----00-----00-0-----00----|(Fill with drums during guitar solo) Play X1

3 measure pause before outro
|----------12-12-15-15-10-10--555------------------|
|----------------------------------00-0-2----------|
|-----------------------------------------3-0------|
|--00--2----------------------------------------000|Outro Play X1
            
Hard to play? Try these video lessons and learn fast. | Correct




comments powered by Disqus
↑ Back to top | Tablatures and chords are parodies/interpretations of the original songs. You may use it for private study, scholarship, research or language learning purposes only