» » »

Cowboy On A Corner Bass tabs (ver.1)

Artists:  A B C D E F G H I J K L M N O P Q R S T U V W X Y Z # 

Cowboy On A Corner Bass tabs (ver.1)

The Abuse
Rating:
0/5 (0 votes)

Hard to play? Try these video lessons and learn fast.
                Performed by The Abuse
Bass line written by Timothy Ayers
/=Slide

|----------------------------------------------|
|----------------------------------------------|
|-----7------7------7--------55-6-7------------|
|-00-----00-----00------00-----------00--33--00| Play X2

|-------------------3-5|
|---------------3-5----|
|--------3-5-----------|
|-0--3-5---------------|Play X1(Interlude)

|---------------------------------------------|
|---------------------------------------------|
|-----7------7------7-------55-6-7------------|
|-00-----00-----00-----00-----------00--33--00| Play X4

|-----------------------------|
|-----------------------------|
|-----------------------------|
|-0--5/3-4-3--000000000000-1-0| Outro!
            
Hard to play? Try these video lessons and learn fast. | Correct




comments powered by Disqus
↑ Back to top | Tablatures and chords are parodies/interpretations of the original songs. You may use it for private study, scholarship, research or language learning purposes only