>
 >
I'm Gonna See You 1

I'm Gonna See You 1 Bass Tabs

That Dog - I'm Gonna See You 1 chords, tabs, tablatures, lyrics

Guitar lessons | Add/correct | Request | Top 50 tabs Artists:  A B C D E F G H I J K L M N O P Q R S T U V W X Y Z 0-9

I'm Gonna See You 1 Bass Tabs – That Dog

CD, Sheet music, Poster

Do you like I'm Gonna See You 1? Share with your friends now
Bass TabsBass Tabs v2Tabs
that dog - i'm gonna see you

I am only responsible for submitting this.


Bass
Standard Tuning


G||------------------|------------------|------------------|------------------|
D||------------------|------------------|------------------|------------------|
A||------------------|------------------|------------------|------------------|
E||------------------|------------------|------------------|------------------|


                                                                            
------------------|------------------|------------------|------------------|
------------------|------------------|------------------|------------------|
------------------|------------------|------------------|------------------|
------------------|------------------|------------------|------------------|


                                                                            
------------------|------------------|------------------|------------------|
------------------|------------------|------------------|------------------|
------------------|------------------|------------------|------------------|
------------------|------------------|------------------|------------------|


                                                                            
------------------|------------------|------------------|------------------|
------------------|------------------|------------------|------------------|
------------------|------------------|------------------|------------------|
------------------|------------------|------------------|------------------|


                                                                                    
------------------|------------------|----------------------|----------------------|
------------------|------------------|----------------------|----------------------|
------------------|------------------|----------------------|----------------------|
------------------|------------------|--5------5--5------5--|--2------2--2------2--|


                                                                                             
----------------------|-----------------------|----------------------|----------------------|
----------------------|-----------------------|----------------------|----------------------|
--2------2--2------2--|-----------------------|----------------------|--5------5--5--5------|
----------------------|--0------0--0--0----0--|--2------2--2------2--|----------------------|


                                                                             
--------------------------|--------------------------|----------------------|
--------------------------|--------------------------|----------------------|
--------------------------|--------------------------|----------------------|
--5--5--5--5--5--0--0--0--|--5--5--5--5--5--0--0--0--|--5------5--5------5--|


                                                                                             
----------------------|----------------------|-----------------------|----------------------|
----------------------|----------------------|-----------------------|----------------------|
----------------------|--2------2--2------2--|-----------------------|----------------------|
--2------2--2------2--|----------------------|--0------0--0--0----0--|--2------2--2------2--|


                                                                             
----------------------|--------------------------|--------------------------|
----------------------|--------------------------|--------------------------|
--5------5--5--5------|--------------------------|--------------------------|
----------------------|--5--5--5--5--5--0--0--0--|--5--5--5--5--5--0--0--0--|


                                                                           
------------------------|------------------------|------------------------|
------------------------|------------------------|------------------------|
--5--5----5--5--5----5--|--4--4----4--4--4----4--|--5--5----5--5--5----5--|
------------------------|------------------------|------------------------|


                                                                           
------------------------|------------------------|------------------------|
------------------------|------------------------|------------------------|
--3--3----3--3--3----3--|--5--5----5--5--5----5--|--2--2----2--2--2----2--|
------------------------|------------------------|------------------------|


                                                                                 
--------------------------|--------------------------|--------------------------|
--------------------------|--------------------------|--------------------------|
--0--0--0--0--0--0--0--0--|--3--3--3--3--3--3--5--5--|--7--7--7--7--7--7--7--7--|
--------------------------|--------------------------|--------------------------|


                                                                                 
--------------------------|--------------------------|--------------------------|
--6--6--6--4--4--4--4--4--|--------------------------|--------------------------|
--------------------------|--0--0--0--0--0--0--0--0--|--3--3--3--3--3--3--5--7--|
--------------------------|--------------------------|--------------------------|


                                                                             
------------------------|------------------------|--------------------------|
------------------------|------------------------|--------------------------|
--7--7--7--7--7--7------|--6--7----9----7--6--7--|--0--0--0--0--0--0--0--0--|
------------------------|------------------------|--------------------------|


                                                                                 
--------------------------|--------------------------|--------------------------|
--------------------------|--------------------------|--------------------------|
--3--3--3--3--3--3--3--3--|--------------------------|--------------------------|
--------------------------|--0--0--0--0--0--0--0--0--|--4--4--4--4--4--4--4--4--|


                                                                                 
--------------------------|--------------------------|--------------------------|
--------------------------|--------------------------|--------------------------|
--0--0--0--0--0--0--0--0--|--3--3--3--3--3--3--3--3--|--------------------------|
--------------------------|--------------------------|--0--0--0--0--0--0--0--0--|


                                                                                 
--------------------------|--------------------------|--------------------------|
--------------------------|--------------------------|--------------------------|
--------------------------|--0--0--0--0--0--0--0--0--|--3--3--3--3--3--3--3--3--|
--4--4--4--4--4--4--4--4--|--------------------------|--------------------------|


                                                                                             
----------------------|----------------------|----------------------|-----------------------|
----------------------|----------------------|----------------------|-----------------------|
----------------------|----------------------|--2------2--2------2--|-----------------------|
--5------5--5------5--|--2------2--2------2--|----------------------|--0------0--0--0----0--|


                                                                         
----------------------|----------------------|--------------------------|
----------------------|----------------------|--------------------------|
----------------------|--5------5--5--5------|--------------------------|
--2------2--2------2--|----------------------|--5--5--5--5--5--0--0--0--|


                                                                         
--------------------------|----------------------|----------------------|
--------------------------|----------------------|----------------------|
--------------------------|----------------------|----------------------|
--5--5--5--5--5--0--0--0--|--5------5--5------5--|--2------2--2------2--|


                                                                                             
----------------------|-----------------------|----------------------|----------------------|
----------------------|-----------------------|----------------------|----------------------|
--2------2--2------2--|-----------------------|----------------------|--5------5--5--5------|
----------------------|--0------0--0--0----0--|--2------2--2------2--|----------------------|


                                                                            
--------------------------|--------------------------|---------------------|
--------------------------|--------------------------|---------7-----------|
--------------------------|--------------------------|--5-------------5----|
--5--5--5--5--5--0--0--0--|--5--5--5--5--5--0--0--0--|---------------------|


                                                                                           
----------------------|---------------------|---------------------|-----------------------|
---------6----7-------|---------7-----------|---------5-----------|---------7----7--------|
--4----------------4--|--5-------------5----|--3-------------3----|--5--------------5--5--|
----------------------|---------------------|---------------------|-----------------------|


                                                                            
---------------------|--------------------------|--------------------------|
---------------------|--------------------------|--------------------------|
--2------2------2----|--0--0--0--0--0--0--0--0--|--3--3--3--3--3--5--5--5--|
---------------------|--------------------------|--------------------------|


                                                                               
--------------------------|------------------------|--------------------------|
--------------------------|------------------------|--------------------------|
--7--7--7--7--7--7--7--7--|--6--7----9----7--6--7--|--0--0--0--0--0--0--0--0--|
--------------------------|------------------------|--------------------------|


                                                                                 
--------------------------|--------------------------|--------------------------|
--------------------------|--------------------------|--6--6--6--6--6--6--6--6--|
--3--3--3--3--3--3--5--7--|--7--7--7--7--7--7--7--7--|--------------------------|
--------------------------|--------------------------|--------------------------|


                                                                                  
---------------------|-------------------|-------------------|-------------------|
---------------------|-------------------|-------------------|-------------------|
--0------0--0--------|--3----------------|-------------------|-------------------|
---------------------|-------------------|--0----------------|--4----------------|


                                                                   
-------------------|-------------------|--------------------------|
-------------------|-------------------|--------------------------|
--0----------------|--3----------------|--------------------------|
-------------------|-------------------|--0--0--0--0--0--0--0--0--|


                                                                                 
--------------------------|--------------------------|--------------------------|
--------------------------|--------------------------|--------------------------|
--------------------------|--0--0--0--0--0--0--0--0--|--3--3--3--3--3--3--3--3--|
--4--4--4--4--4--4--4--4--|--------------------------|--------------------------|


                                                                                 
--------------------------|--------------------------|--------------------------|
--------------------------|--------------------------|--------------------------|
--------------------------|--------------------------|--0--0--0--0--0--0--0--0--|
--0--0--0--0--0--0--0--0--|--4--4--4--4--4--4--4--4--|--------------------------|


                                                                                 
--------------------------|--------------------------|--------------------------|
--------------------------|--------------------------|--------------------------|
--3--3--3--3--3--3--3--3--|--------------------------|--------------------------|
--------------------------|--0--0--0--0--0--0--0--0--|--4--4--4--4--4--4--4--4--|


                                                                                
--------------------------|--------------------------|-------------------------|
--------------------------|--------------------------|-------------------------|
--0--0--0--0--0--0--0--0--|--3--3--3--3--3--5--5--5--|--7--7--7--7--7-----7----|
--------------------------|--------------------------|-----------------7-------|


                                                                        
----------------------|---------9------------|-------------------------|
---------------6------|--7-----------7--7----|--7--9----10----10--7----|
--6--7----9-----------|----------------------|-------------------------|
----------------------|----------------------|-------------------------|


                                                                                           
----------------------|---------------------|---------------------|-----------------------|
----------------------|--6------6------6----|--7------7------7----|--7--9----10------7----|
--7------7----7--7----|---------------------|---------------------|-----------------------|
----------------------|---------------------|---------------------|-----------------------|


                                                                                           
----------------------|---------------------|--------------9-------|----------------------|
----------------------|--6------6------6----|--7------7-------7----|--5------4------4--6--|
--7------7----7--7----|---------------------|----------------------|----------------------|
----------------------|---------------------|----------------------|----------------------|


                                                                                           
---------------------|----------------------|---------------------|-----------------------|
--6------6------6----|----------6----6------|--7------7------7----|--7--9----10------7----|
---------------------|--7--9----------------|---------------------|-----------------------|
---------------------|----------------------|---------------------|-----------------------|


                                                                                   
---------------------|---------------------|-------------------|------------------|
---------------------|--6------6------6----|--7----------------|------------------|
--7------7------7----|---------------------|-------------------|------------------|
---------------------|---------------------|-------------------|------------------|





Comments


Popular That Dog tabs & chords
Hawthorne 1 Bass Tabs
Old Timer 1 Bass Tabs
Retreat From The Sun 1 Bass Tabs
Long Island Chords
I'm Gonna See You Tabs
Michael Jordan Tabs
Raina Tabs
Retreat From The Sun Tabs
She Looks At Me Tabs
Silently Tabs


Song lyrics



↑ Back to top | Tablatures and chords are parodies/interpretations of the original songs. You may use it for private study, scholarship, research or language learning purposes only
© 2014 AZChords.com Contact us | Privacy policy | DMCA | Add/correct tabs | Request tabs | Top 50 tabs