>
 >
I'm Gonna See You

I'm Gonna See You Bass Tabs

That Dog - I'm Gonna See You chords, tabs, tablatures, lyrics

Guitar lessons | Add/correct | Request | Top 50 tabs Artists:  A B C D E F G H I J K L M N O P Q R S T U V W X Y Z 0-9

I'm Gonna See You Bass Tabs – That Dog

CD, Sheet music, Poster

Do you like I'm Gonna See You? Share with your friends now
Bass TabsBass Tabs v2Tabs
that dog.

Intro

G|-----------------------------------------------------------------|
D|-----------------------------------------------------------------|
A|-----------------------------------------------------------------|
E|-----------------------------------------------------------------|

G|-----------------------------------------------------------------|
D|-----------------------------------------------------------------|
A|-----------------------------------------------------------------|
E|-----------------------------------------------------------------|

G|-----------------------------------------------------------------|
D|-7-7-7-7-7-7-7-7-1010101010101010--------------------------------|
A|---------------------------------7-7-7-7-7-7-7-7-7-7-7-7-7-7-7-7-|
E|-----------------------------------------------------------------|

G|-----------------------------------------------------------------|
D|-7-7-7-7-7-7-7-7-1010101010101010--------------------------------|
A|---------------------------------7-7-7-7-7-7-7-7-7-7-7-7-7-7-7-7-|
E|-----------------------------------------------------------------|

G|----------------------------------|
D|----------------------------------|
A|-7-7-7-7-7-7-7-7-1010101010101010-|
E|----------------------------------|

First Verse

G|-----------------------------------------------------------------|
D|-----------------------------------------------------------------|
A|-----------------------------------------------------------------|
E|-5-----5-5-----5-2-----2-2-----2-7-----7-7-----7-0-----0-0-----0-|

G|-----------------------------------------------------------------|
D|-----------------------------------------------------------------|
A|-----------------------------------------------------------------|
E|-2-----2-2-----2-10---10-10---10-5-5-5-5-5-0-0-0-5-5-5-5-5-0-0-0-|

[repeat once]

First Chorus

G|-----------------------------------------------------------------|
D|-----------------------------------------------------------------|
A|-5-5-5-5-5-5-5-5-4-4-4-4-4-4-4-4-5-5-5-5-5-5-5-5-3-3-3-3-3-3-3-3-|
E|-----------------------------------------------------------------|

G|-----------------------------------------------------------------|
D|-----------------------------------------------------------------|
A|-5-5-5-5-5-5-5-5-2-2-2-2-2-2-2-2-0-0-0-0-0-0-0-0-3-3-3-3-3-3-5-5-|
E|-----------------------------------------------------------------|

G|-----------------------------------------------------------------|
D|-----------------------------------------------------------------|
A|---------------------------------0-0-0-0-0-0-0-0-3-3-3-3-3-3-5-5-|
E|-0-0-0-0-0-0-0-0-0-0-0-0-0-0-0-0---------------------------------|

G|-----------------------------------------------------------------|
D|-----------------------------------------------------------------|
A|-----------------6/7---9---7-6h7-0-0-0-0-0-0-0-0-3-3-3-3-3-3-3-3-|
E|-0-0-0-0-0-0-0-0-------------------------------------------------|

G|-----------------------------------------------------------------|
D|-----------------------------------------------------------------|
A|-----------------------------------------------------------------|
E|-0-0-0-0-0-0-0-0-4-4-4-4-4-4-4-4-5-5-5-5-5-5-5-5-8-8-8-8-8-8-8-8-|

Second Verse

G|-----------------------------------------------------------------|
D|-----------------------------------------------------------------|
A|-----------------------------------------------------------------|
E|-5-----5-5-----5-2-----2-2-----2-7-----7-7-----7-0-----0-0-----0-|

G|-----------------------------------------------------------------|
D|-----------------------------------------------------------------|
A|-----------------------------------------------------------------|
E|-2-----2-2-----2-10---10-10---10-5-5-5-5-5-0-0-0-5-5-5-5-5-0-0-0-|

G|-----------------------------------------------------------------|
D|-----------------------------------------------------------------|
A|-----------------------------------------------------------------|
E|-5-----5-5-5-5-5-2-----2-2-2-2-2-7-----7-7-7-7-7-0-----0-0-0-0-0-|

G|-----------------------------------------------------------------|
D|-----------------------------------------------------------------|
A|-----------------------------------------------------------------|
E|-2-----2-2-----2/10---10-10---10-5-5-5-5-5-0-0-0-5-5-5-5-5-0-0-0-|

Second Chorus / Outro

G|-----------------------------------------------------------------|
D|-----------------------------------------------------------------|
A|-5-----0-----5---4-----0-------4-5-----0-----5---3---------------|
E|---------------------------2h4------------------------3/(2)/(0)--|

G|-----------------------------------------------------------------|
D|-----------------------------------------------------------------|
A|-5-----0-----5---2-----2-2-2-2-2-0-0-0-0-0-0-0-0-3-3-3-3-3-3-5-5-|
E|-----------------------------------------------------------------|

G|-----------------------------------------------------------------|
D|-----------------------------------------------------------------|
A|-----------------6/7---9---7-6h7-0-0-0-0-0-0-0-0-3-3-3-3-3-3-5-5-|
E|-0-0-0-0-0-0-0-0-------------------------------------------------|

G|-----------------------------------------------------------------|
D|-----------------------------------------------------------------|
A|---------------------------------0-----0-0-------3-----3-3-------|
E|-0-0-0-0-0-0-0-0-0-0-0-0-0-0-0-0---------------------------------|

G|-----------------------------------------------------------------|
D|-----------------------------------------------------------------|
A|-----------------------------------------------------------------|
E|-0-----0-0-------4-----4-4-------5-----5-5-------8-----8-8-------|

G|---------------------------------|
D|---------------------------------|
A|---------------------------------|
E|-0-0-0-0-0-0-0-0-4-4-4-4-4-4-4-4-|

G|-----------------------------------------------------------------|
D|-----------------------------------------------------------------|
A|-----------------------------------------------------------------|
E|-5-5-5-5-5-5-5-5-8-8-8-8-8-8-8-8-0-0-0-0-0-0-0-0-4-4-4-4-4-4-4-4-|

G|-----------------------------------------------------------------|
D|-----------------------------------------------------------------|
A|-----------------------------------------------------------------|
E|-5-5-5-5-5-5-5-5-8-8-8-8-8-8-8-8-0-0-0-0-0-0-0-0-4-4-4-4-4-4-4-4-|

G|-----------------------------------------------------------------|
D|-----------------------------------------------------------------|
A|---------------------------6-7-7-------------7---6-7-----9---11--|
E|-5-5-5-5-5-5-5-5-8-8-8-8-8-------0-0-0-0-0-0---0-----------------|

G|-----------------------------------------------------------------|
D|-----------------------------------------------------------------|
A|-12-------------11-12--15----11------------------11h12---11------|
E|---------------------------------0-0-0-0-0-0-0-0-----------------|

G|-----------------------------------------------------------------|
D|-----------------------------------------------------------------|
A|-12-------------11-12--15----11------------------11h12---11------|
E|---------------------------------0-0-0-0-0-0-0-0-----------------|

G|-----------------------------------------------------------------|
D|-----------------------------------------------------------------|
A|-12--------------11----9--------/11-11---7-------9h11------------|
E|-----------------------------------------------------------------|

G|-----------------------------------------------------------------|
D|-----------------------------------------------------------------|
A|-12-------------11-12--15----11------------------11h12---11------|
E|---------------------------------0-0-0-0-0-0-0-0-----------------|





Comments


Popular That Dog tabs & chords
Everytime I Try 1 Bass Tabs
Gagged And Tied Bass Tabs
He's Kissing Christian 1 Bass Tabs
I'm Gonna See You 1 Bass Tabs
Never Say Never 1 Bass Tabs
To Keep Me 1 Bass Tabs
He's Kissing Christian Chords
She Doesn't Know How Chords
Minneapolis Tabs
Ms. Wrong Tabs


Song lyrics



↑ Back to top | Tablatures and chords are parodies/interpretations of the original songs. You may use it for private study, scholarship, research or language learning purposes only
© 2014 AZChords.com Contact us | Privacy policy | DMCA | Add/correct tabs | Request tabs | Top 50 tabs