» » »

He's Kissing Christian Bass tabs (ver.2)

Artists:  A B C D E F G H I J K L M N O P Q R S T U V W X Y Z # 

He's Kissing Christian Bass tabs (ver.2)

That Dog
Rating:
0/5 (0 votes)

Hard to play? Try these video lessons and learn fast.
                
~~~~~~~~~~~~~~~~~~
E: 8th
Q: Quarter

[Intro]
   E E E  E E E E E E E E E E E E E   E E E E E E E  E E E E E E E Q 
G:-----11-9-----8-9-----8-6-----6-4-|-----4~------4~-------4~------4/----|
D:-9-9------7-7-----6-6-----4-4-----|-2-2---2-4-4----4-2-2---2-4-4-------|
A:----------------------------------|------------------------------------|
E:----------------------------------|------------------------------------|

[Verse1]
   Q   Q   Q   Q   Q   Q   Q   Q    Q   E E Q   E E Q   E E Q   Q
G:-----11\-----8\------8\------6--|-----4-------6-------7-------9\--|
D:-9-------7-------6-------4------|-2-----2-4-----4-5-----5-7-------|
A:--------------------------------|---------------------------------|
E:--------------------------------|---------------------------------|

   Q   Q   Q   Q   Q   Q   Q   Q    Q   E E Q   E E Q   E E E E Q
G:-----11\-----8\------8\------6--|-----4-------6-------4-------4---|
D:-9-------7-------6-------4------|-2-----2-4-----4-2-----2-4-4-----|
A:--------------------------------|---------------------------------|
E:--------------------------------|---------------------------------|

   Q   Q   Q   Q   Q   Q   Q   Q    Q   E E Q   E E Q   E E E E Q
G:-----11\-----8\------8\------6--|-----4-------6-------7-----9-9\--|
D:-9-------7-------6-------4------|-2-----2-4-----4-5-----5-7-------|
A:--------------------------------|---------------------------------|
E:--------------------------------|---------------------------------|

   Q   Q   Q   Q   Q   Q   Q   Q    E E E E E E E E E E E E E E E X  
G:-----11\-----8\------8\------6--|---4-4-4-6-6-6-6-4-4-4-4-6-6-6---|
D:-9-------7-------6-------4------|-2-2-2-2-4-4-4-4-2-2-2-2-4-4-4---|
A:--------------------------------|---------------------------------|
E:--------------------------------|---------------------------------|

[Refrain]
   E E E E E E E E E E E E E E E E   E E E E E E E E E E E Q   E E E 
G:---------------------------------|---------------------------------|
D:---------------------------------|---------------------------------|
A:---------------------------------|-2-2-2-2-0-0-0-0-----------------|
E:-0-0-0-0-0-0-0-0-0-0-0-0-0-0-0-0-|-----------------4-4-4-4-2-2-2-2-|
   E E E E E E E E E E E E E E E E   E E E E E E E E E E E Q   E E E 
G:---------------------------------|---------------------------------|
D:---------------------------------|---------------------------------|
A:---------------------------------|-2-2-2-2-0-0-0-0-----------------|
E:-0-0-0-0-0-0-0-0-0-0-0-0-0-0-0-0-|-----------------4-4-4-2---2-2-2-|

   E E E E E E E E E E E E E E E E   E E E E E E E E E E E E E E E X  
G:---------------------------------|---------------------------------|
D:---------------------------------|---------------------------------|
A:---------------------------------|---------------------------------|
E:-0-0-0-0-0-0-0-0-0-0-0-0-0-0-0-0-|-2-2-2-2-2-2-2-2-2-2-2-2-2-2-2---|

G:---------------------------------|---------------------------------|
D:---------------------------------|---------------------------------|
A:-2-2-2-2-0-0-0-0-----------------|---------------------------------|
E:-----------------4-4-4-2---2-2-2-|-0-0-0-0-2-2-2-2-3-3-3-3-5-5-5-5-|

[2nd Verse] (differs a bit)
   E E E E E E E E E E E E E E E E   E E E E E E E E E E E E E E E E 
G:---------------------------------|---------------------------------|
D:---------------------------------|---------------------------------|
A:-----9-------7-------6-------4---|---------------------------------|
E:-7-7---7-5-5---5-4-4---4-2-2---2-|-0-0-0-0-2-2-2-2-3-3-3-3-5-5-5-5-|

   E E E E E E E E E E E E E E E E   Q   E E E E E E E E E E E E E E 
G:---------------------------------|---------------------------------|
D:---------------------------------|---------------------------------|
A:-----9-------7-------6-------4---|---------------------------------|
E:-7-7---7-5-5---5-4-4---4-2-2---2-|-0---0-0-X-2-2-2-X-0-0-0-X-2-2-2-|

[Break]
   Q   E E Q   E E Q   E E Q   E E   E E E E E E E E E E E Q   E E E 
G:---------------------------------|---------------------------------|
D:---------------------------------|---------------------------------| [2x]
A:---------------------------------|-2-2-2-2-0-0-0-0-----------------|
E:-0---3-0-----3-0-----3-0-----3-0-|-----------------4-4-4-4-2-2-2-2-|

   E E E E E E E E E E E E E E E E   E E E E E E E E E E E E E E E X  
G:---------------------------------|---------------------------------|
D:---------------------------------|---------------------------------|
A:---------------------------------|---------------------------------|
E:-0-0-0-0-0-0-0-0-0-0-0-0-0-0-0-0-|-2-2-2-2-2-2-2-2-2-2-2-2-2-2-2---|

Violin Part: [Intro again]
[Refrain]
[Intro]
[Verse1]
End
            
Hard to play? Try these video lessons and learn fast. | Correct




comments powered by Disqus
↑ Back to top | Tablatures and chords are parodies/interpretations of the original songs. You may use it for private study, scholarship, research or language learning purposes only