» » »

He's Kissing Christian Tabs (ver.1)

Artists:  A B C D E F G H I J K L M N O P Q R S T U V W X Y Z # 

He's Kissing Christian Tabs (ver.1)

That Dog
Rating:
0/5 (0 votes)

Hard to play? Try these video lessons and learn fast.
                #------------------------------------------------------------------------------##
#


Performer: that dog.

	I have been constantly searching the internet for that dog. tab
as well as a couple of other bands (dirty Three, amps, angry samoans) but
i couldn't find it.  I took it upon myself to tab it, because i had been
taking so much tab, and not returning the favor.  so enjoy (it's probably
all not there)--Jason


Tuning: EADGBe
Intro and Verse 1:

----------------------------------------------------------------------------------------------------------------|
----------------------------------------------------------------------------------------------------------------|
----------------------------------------------------------------------------------------------------------------|
--------------------------------------------------------------------------------------------------2----------2--|
-------------9-----------------------------7---------------------------6-------------2----2---------2--2--------|
7----7-----------7-------5------5--------------5----4------4-------------2--------------------------------------|

Rmember, there are 2 guitars doing this same thing at diff. times and
maybe backwards.

Chorus (Chord Progressions, not correct rhythm)Distorted
---------------------------------------------------------------------------------------------------------|
---------------------------------------------------------------------------------------------------------|
---------------------------------------------------------------------------------------------------------|
---------------------------------------------------------------------------------------------------------|
2--x---4------9------7------6-------4--------------------------------------------------------------------|
2--x---4------9------7------6-------4--------------------------------------------------------------------|
0--x---2------7------5------4-------2--------------------------------------------------------------------|
There are also some harmonics picked out between the E and F# chords.

	As always, questions, comments, additions, corrections, thank
            
Hard to play? Try these video lessons and learn fast. | Correct




comments powered by Disqus
↑ Back to top | Tablatures and chords are parodies/interpretations of the original songs. You may use it for private study, scholarship, research or language learning purposes only