» » »

That Dog, Annie Bass tabs (ver.2)

Artists:  A B C D E F G H I J K L M N O P Q R S T U V W X Y Z # 

Annie Bass tabs (ver.2)

That Dog Tabs
 Rating:
4/5 (4 votes)
Annie lessons Tabs too difficult? Try these video lessons and learn fast
                that dog.


INTRO

G|-------------------------------------------------------------------|
D|-------------------------------------------------------------------|
A|-------------------------------------------------------------------| x2
E|-0-0-0-0-0-0-0-0-8-8-8-8-8-8-8-8-/9-9-9-9-9-9-9-9-\5-5-5-5-5-5-5-5-|

G|-------------------------------------------------------------------------|
D|-------------------------------------------------------------------------|
A|-------------------------------------------------------------------------|
E|-0-0-0-0-0-0-0-0-8-8-8-8-8-8-8-8/9-9-9-9-9-9-9-9/12-12-12-12-12-12-12-12-|

VERSE

G|----------------------------------|
D|----------------------------------|
A|-------------------------------3*-|
E|-1-1-1-1-1-1-1-1-/5-5-5-\3-3-3----|

*I can't tell if this note is really right, I'm not sure if it's even
played on bass, the guitar is relatively overpowering.

That other part?

(please note that durring this part of the song, the number of times
each note is played is varied, please use this only as a guide and
listen for the correct rhythm)

G|-------------------------------------------------------------------|
D|-------------------------------------------------------------------|
A|-------------------------------------------------------------------|
E|-0-0-0-0-0-0-0-0-8-8-8-8-8-8-8-8-/9-9-9-9-9-9-9-9-\5-5-5-5-5-5-5-5-|

One of the times she plays this she adds a little variation, it sounds
something like this...

G|---------------------------------------------------------------|
D|---------------------------------------------------------------|
A|-----------------------------------------------------7-7-5-3---|
E|-0-0-0-0-0-0-0-0-8-8-8-8-8-8-8-8-/9-9-9-9-9-9-9-9-\5---------0-|
            
Submit corrections

comments powered by Disqus
↑ Back to top | That Dog Bass for Annie. Lyrics for acoustic guitar and electric guitar. Tablatures and chords are parodies/interpretations of the original songs. You may use it for private study, scholarship, research or language learning purposes only