>
 >
Annie

Annie Guitar Tabs

That Dog - Annie chords, tabs, tablatures, lyrics

Guitar lessons | Add/correct | Request | Top 50 tabs Artists:  A B C D E F G H I J K L M N O P Q R S T U V W X Y Z 0-9

Annie Guitar Tabs – That Dog

CD, Sheet music, Poster

Do you like Annie? Share with your friends now
Bass TabsBass Tabs v2Tabs
that dog - annie

I am only responsible for submitting this.


Guitar 1
Open E Tuning

    
E ||--7---7---7---7---7---7---7---7---|--7--7--7--7--7--7--7--7--|--7--7--7--7--7--7--7--7--|
B ||--10--10--10--10--10--10--10--10--|--9--9--9--9--9--9--9--9--|--7--7--7--7--7--7--7--7--|
G#||----------------------------------|--------------------------|--------------------------|
E ||----------------------------------|--------------------------|--------------------------|
B ||----------------------------------|--------------------------|--------------------------|
E ||----------------------------------|--------------------------|--------------------------|

                                                                                         
--5--5--5--5--5--5--5--5--|--7---7---7---7---7---7---7---7---|--7--7--7--7--7--7--7--7--|
--5--5--5--5--5--5--5--5--|--10--10--10--10--10--10--10--10--|--9--9--9--9--9--9--9--9--|
--------------------------|----------------------------------|--------------------------|
--------------------------|----------------------------------|--------------------------|
--------------------------|----------------------------------|--------------------------|
--------------------------|----------------------------------|--------------------------|

                                                                                         
--7--7--7--7--7--7--7--7--|--5--5--5--5--5--5--5--5--|--7---7---7---7---7---7---7---7---|
--7--7--7--7--7--7--7--7--|--5--5--5--5--5--5--5--5--|--10--10--10--10--10--10--10--10--|
--------------------------|--------------------------|----------------------------------|
--------------------------|--------------------------|----------------------------------|
--------------------------|--------------------------|----------------------------------|
--------------------------|--------------------------|----------------------------------|

                                                                                
--7--7--7--7--7--7--7--7--|--7--7--7--7--7--7--7--7--|--5--5--5--5--5--5--5--5--|
--9--9--9--9--9--9--9--9--|--7--7--7--7--7--7--7--7--|--5--5--5--5--5--5--5--5--|
--------------------------|--------------------------|--------------------------|
--------------------------|--------------------------|--------------------------|
--------------------------|--------------------------|--------------------------|
--------------------------|--------------------------|--------------------------|

                                                                             
--5----------------|------------------|------------------|------------------|
--5----------------|------------------|------------------|------------------|
-------------------|------------------|------------------|------------------|
-------------------|------------------|------------------|------------------|
-------------------|------------------|------------------|------------------|
-------------------|------------------|------------------|------------------|

                                                                            
------------------|------------------|------------------|------------------|
------------------|------------------|------------------|------------------|
------------------|------------------|------------------|------------------|
------------------|------------------|------------------|------------------|
------------------|------------------|------------------|------------------|
------------------|------------------|------------------|------------------|

                                                                                
|-------------------|-------------------||------------------|------------------|
|-------------------|-------------------||------------------|------------------|
|*------------------|------------------*||------------------|------------------|
|*------------------|------------------*||------------------|------------------|
|-------------------|-------------------||------------------|------------------|
|-------------------|-------------------||------------------|------------------|

                                                                                           
------------------|------------------|--5--5--5--5--5--5--5--5--|--5--5--5--5--5--5--5b---|
------------------|------------------|--5--5--5--5--5--5--5--5--|--5--5--5--5--5--5--5b---|
------------------|------------------|--------------------------|-------------------------|
------------------|------------------|--------------------------|-------------------------|
------------------|------------------|--------------------------|-------------------------|
------------------|------------------|--------------------------|-------------------------|

                                                                                
--5--5--5--5--5--5--5--5--|--5--5--5--5--5--5--5b---|--5--5--5--5--5--5--5--5--|
--5--5--5--5--5--5--5--5--|--5--5--5--5--5--5--5b---|--5--5--5--5--5--5--5--5--|
--------------------------|-------------------------|--------------------------|
--------------------------|-------------------------|--------------------------|
--------------------------|-------------------------|--------------------------|
--------------------------|-------------------------|--------------------------|

                                                                               
--5--5--5--5--5--5--5b---|--5--5--5--5--5--5--5--5--|--5--5--5--5--5--5--5----|
--5--5--5--5--5--5--5b---|--5--5--5--5--5--5--5--5--|--5--5--5--5--5--5--5----|
-------------------------|--------------------------|-------------------------|
-------------------------|--------------------------|-------------------------|
-------------------------|--------------------------|-------------------------|
-------------------------|--------------------------|-------------------------|

                                                                             
--5b---------------|------------------|------------------|------------------|
--5r---------------|------------------|------------------|------------------|
-------------------|------------------|------------------|------------------|
-------------------|------------------|------------------|------------------|
-------------------|------------------|------------------|------------------|
-------------------|------------------|------------------|------------------|

                                                                            
------------------|------------------|------------------|------------------|
------------------|------------------|------------------|------------------|
------------------|------------------|------------------|------------------|
------------------|------------------|------------------|------------------|
------------------|------------------|------------------|------------------|
------------------|------------------|------------------|------------------|

                                                                            
------------------|------------------|------------------|------------------|
------------------|------------------|------------------|------------------|
------------------|------------------|------------------|------------------|
------------------|------------------|------------------|------------------|
------------------|------------------|------------------|------------------|
------------------|------------------|------------------|------------------|

                                                                                            
------------------|------------------|--------------------------|--------------------------|
------------------|------------------|--------------------------|--------------------------|
------------------|------------------|--------0-----------0-----|--------0-----------0-----|
------------------|------------------|--0--0--0--0--0--0--0--0--|--0--0--0--0--0--0--0--0--|
------------------|------------------|--0--0--0--0--0--0--0--0--|--8--8--8--8--8--8--8--8--|
------------------|------------------|--0--0--0--0--0--0--0--0--|--8--8--8--8--8--8--8--8--|

                                                                                  
--------------------------|-------------------------||---------------------------|
--------------------------|-------------------------||---------------------------|
--------0-----------0-----|-------0-----------0-----||*--------------------------|
-----0--0--0--0--0--0--0--|----0--0--------0--0--0--||*--0--0--0--0--0--0--0--0--|
--9--9--9--9--9--9--9--9--|----5--5--5--5--7--7--7--||---1--1--1--1--1--1--1--2/-|
--9--9--9--9--9--9--9--9--|----5--5--5--5--7--7--7--||---1--1--1--1--1--1--1--2/-|

                                                                                 
--------------------------||--------------------------|--------------------0----|
--------------------------||--------------------------|--------------------0----|
--------------------0----*||--------------------------|--------------------0----|
--0--0--0--0--0--0--0----*||--0--0--0--0--0--0--0--0--|--0--0--0--0--0--0--0----|
--5--5--5--2--2--2--2-----||--1--1--1--1--1--1--1--2/-|--5--5--5--2--2--2--2----|
--5--5--5--2--2--2--2-----||--1--1--1--1--1--1--1--2/-|--5--5--5--2--2--2--2----|

                                                                                
--------------------------|--------------------0----|--------------------------|
--------------------------|--------------------0----|--------------------------|
--------------------------|--------------------0----|--------------------------|
--0--0--0--0--0--0--0--0--|--0--0--0--0--0--0--0----|--0--0--0--0--0--0--0--0--|
--1--1--1--1--1--1--1--2/-|--5--5--5--2--2--2--2----|--1--1--1--1--1--1--1--2/-|
--1--1--1--1--1--1--1--2/-|--5--5--5--2--2--2--2----|--1--1--1--1--1--1--1--2/-|

                                                                               
--------------------0----|--------------------------|--------------------0----|
--------------------0----|--------------------------|--------------------0----|
--------------------0----|--------------------------|--------------------0----|
--0--0--0--0--0--0--0----|--0--0--0--0--0--0--0--0--|--0--0--0--0--0--0--0----|
--5--5--5--2--2--2--2----|--1--1--1--1--1--1--1--2/-|--5--5--5--2--2--2--2----|
--5--5--5--2--2--2--2----|--1--1--1--1--1--1--1--2/-|--5--5--5--2--2--2--2----|

                                                                                
--5--5--5--5--5--5--5--5--|--5--5--5--5--5--5--5b---|--5--5--5--5--5--5--5--5--|
--5--5--5--5--5--5--5--5--|--5--5--5--5--5--5--5b---|--5--5--5--5--5--5--5--5--|
--------------------------|-------------------------|--------------------------|
--------------------------|-------------------------|--------------------------|
--------------------------|-------------------------|--------------------------|
--------------------------|-------------------------|--------------------------|

                                                                               
--5--5--5--5--5--5--5b---|--5--5--5--5--5--5--5--5--|--5--5--5--5--5--5--5b---|
--5--5--5--5--5--5--5b---|--5--5--5--5--5--5--5--5--|--5--5--5--5--5--5--5b---|
-------------------------|--------------------------|-------------------------|
-------------------------|--------------------------|-------------------------|
-------------------------|--------------------------|-------------------------|
-------------------------|--------------------------|-------------------------|

                                                                                            
--5--5--5--5--5--5--5--5--|--5--5--5--5--5--5--5----|--5b---------------|------------------|
--5--5--5--5--5--5--5--5--|--5--5--5--5--5--5--5----|--5r---------------|------------------|
--------------------------|-------------------------|-------------------|------------------|
--------------------------|-------------------------|-------------------|------------------|
--------------------------|-------------------------|-------------------|------------------|
--------------------------|-------------------------|-------------------|------------------|

                                                                            
------------------|------------------|------------------|------------------|
------------------|------------------|------------------|------------------|
------------------|------------------|------------------|------------------|
------------------|------------------|------------------|------------------|
------------------|------------------|------------------|------------------|
------------------|------------------|------------------|------------------|

                                                                            
------------------|------------------|------------------|------------------|
------------------|------------------|------------------|------------------|
------------------|------------------|------------------|------------------|
------------------|------------------|------------------|------------------|
------------------|------------------|------------------|------------------|
------------------|------------------|------------------|------------------|

                                                                            
------------------|------------------|------------------|------------------|
------------------|------------------|------------------|------------------|
------------------|------------------|------------------|------------------|
------------------|------------------|------------------|------------------|
------------------|------------------|------------------|------------------|
------------------|------------------|------------------|------------------|

                                                                                 
--------------------------|--------------------------|--------------------------|
--------------------------|--------------------------|--------------------------|
--------0-----------0-----|--------0-----------0-----|--------0-----------0-----|
--0--0--0--0--0--0--0--0--|--0--0--0--0--0--0--0--0--|-----0--0--0--0--0--0--0--|
--0--0--0--0--0--0--0--0--|--8--8--8--8--8--8--8--8--|--9--9--9--9--9--9--9--9--|
--0--0--0--0--0--0--0--0--|--8--8--8--8--8--8--8--8--|--9--9--9--9--9--9--9--9--|

                                                                              
-----------------------|--------------------------|--------------------------|
-----------------------|--------------------------|--------------------------|
-------0------------0--|--------0-----------0-----|--------0-----------0-----|
----0--0------0--0--0--|--0--0--0--0--0--0--0--0--|--0--0--0--0--0--0--0--0--|
----5--5------7--7--7--|--0--0--0--0--0--0--0--0--|--8--8--8--8--8--8--8--8--|
----5--5------7--7--7--|--0--0--0--0--0--0--0--0--|--8--8--8--8--8--8--8--8--|

                                                                                 
--------------------------|--------------------------|--------------------------|
--------------------------|--------------------------|--------------------------|
--------0-----------0-----|--------0-----------0-----|--------0-----------0-----|
-----0--0--0--0--0--0--0--|--0--0--0--0--0--0--0--0--|--0--0--0--0--0--0--0--0--|
--9--9--9--9--9--9--9--9--|--5--5--5--7--7--7--7--7--|--0--0--0--0--0--0--0--0--|
--9--9--9--9--9--9--9--9--|--5--5--5--7--7--7--7--7--|--0--0--0--0--0--0--0--0--|

                                                                               
--------------------------|--------------------------|------------------------|
--------------------------|--------------------------|------------------------|
--------0-----------0-----|--------0-----------0-----|-------0----------0--0--|
--0--0--0--0--0--0--0--0--|-----0--0--0--0--0--0--0--|----0--0----0--0--0--0--|
--8--8--8--8--8--8--8--8--|--9--9--9--9--9--9--9--9--|----5--5----5--5--5--5--|
--8--8--8--8--8--8--8--8--|--9--9--9--9--9--9--9--9--|----5--5----5--5--5--5--|

                                                                                         
--7---7---7---7---7---7---7---7---|--7--7--7--7--7--7--7--7--|--7--7--7--7--7--7--7--7--|
--10--10--10--10--10--10--10--10--|--9--9--9--9--9--9--9--9--|--7--7--7--7--7--7--7--7--|
----------------------------------|--------------------------|--------------------------|
----------------------------------|--------------------------|--------------------------|
----------------------------------|--------------------------|--------------------------|
----------------------------------|--------------------------|--------------------------|

                                                                                         
--5--5--5--5--5--5--5--5--|--7---7---7---7---7---7---7---7---|--7--7--7--7--7--7--7--7--|
--5--5--5--5--5--5--5--5--|--10--10--10--10--10--10--10--10--|--9--9--9--9--9--9--9--9--|
--------------------------|----------------------------------|--------------------------|
--------------------------|----------------------------------|--------------------------|
--------------------------|----------------------------------|--------------------------|
--------------------------|----------------------------------|--------------------------|

                                                                                 
--7--7--7--7--7--7--7--7--|--5--5--5--5--5--5--5--5--|--5--5--5--5--5--5--5--5--|
--7--7--7--7--7--7--7--7--|--5--5--5--5--5--5--5--5--|--5--5--5--5--5--5--5--5--|
--------------------------|--------------------------|--------------------------|
--------------------------|--------------------------|--------------------------|
--------------------------|--------------------------|--------------------------|
--------------------------|--------------------------|--------------------------|

                                                                               
--5--5--5--5--5--5--5b---|--5--5--5--5--5--5--5--5--|--5--5--5--5--5--5--5b---|
--5--5--5--5--5--5--5b---|--5--5--5--5--5--5--5--5--|--5--5--5--5--5--5--5b---|
-------------------------|--------------------------|-------------------------|
-------------------------|--------------------------|-------------------------|
-------------------------|--------------------------|-------------------------|
-------------------------|--------------------------|-------------------------|

                                                                                           
--5--5--5--5--5--5--5--5--|--5--5--5--5--5--5--5b---|------------------|------------------|
--5--5--5--5--5--5--5--5--|--5--5--5--5--5--5--5b---|------------------|------------------|
--------------------------|-------------------------|------------------|------------------|
--------------------------|-------------------------|------------------|------------------|
--------------------------|-------------------------|------------------|------------------|
--------------------------|-------------------------|------------------|------------------|

                    
------------------||
------------------||
------------------||
------------------||
------------------||
------------------||


Guitar 2
Open E Tuning

                                                                                    
E ||--------------------------|--------------------------|--------------------------|
B ||--------------------------|--------------------------|--------------------------|
G#||--------0-----------0-----|--------0-----------0-----|--------0-----------0-----|
E ||--0--0--0--0--0--0--0--0--|--0--0--0--0--0--0--0--0--|--0--0--0--0--0--0--0--0--|
B ||--0--0--0--0--0--0--0--0--|--8--8--8--7--7--7--7--7--|--9--9--9--9--9--9--9--9--|
E ||--0--0--0--0--0--0--0--0--|--8--8--8--8--8--8--8--8--|--9--9--9--9--9--9--9--9--|


                                                                                 
--------------------------|--------------------------|--------------------------|
--------------------------|--------------------------|--------------------------|
--------0-----------0-----|--------0-----------0-----|--------0-----------0-----|
-----0--0--0-----0--0--0--|--0--0--0--0--0--0--0--0--|--0--0--0--0--0--0--0--0--|
--5--5--5--4-----4--5--0--|--0--0--0--0--0--0--0--0--|--8--8--8--8--8--8--8--8--|
--5--5--5--5--5--5--5--5--|--0--0--0--0--0--0--0--0--|--8--8--8--8--8--8--8--8--|


                                                                                 
--------------------------|--------------------------|--------------------------|
--------------------------|--------------------------|--------------------------|
--------0-----------0-----|--------0-----------0-----|--------0-----------0-----|
-----0--0--0--0--0--0--0--|-----0--0--0--0--0--0--0--|--0--0--0--0--0--0--0--0--|
--9--9--9--9--9--9--9--9--|--5--5--5--5--5--5--5--5--|--0--0--0--0--0--0--0--0--|
--9--9--9--9--9--9--9--9--|--5--5--5--5--5--5--5--5--|--0--0--0--0--0--0--0--0--|


                                                                                 
--------------------------|--------------------------|--------------------------|
--------------------------|--------------------------|--------------------------|
--------0-----------0-----|--------0-----------0-----|--------------------0--0--|
--0--0--0--0--0--0--0--0--|-----0--0--0--0--0--0--0--|-----------0--0--0--0--0--|
--8--8--8--8--8--8--8--8--|--9--9--9--9--9--9--9--9--|--5--5--5--5--5--5--5--5--|
--8--8--8--8--8--8--8--8--|--9--9--9--9--9--9--9--9--|--5--5--5--5--5--5--5--5--|


                                                                                
--------------------------|--------------------0----|--------------------------|
--------------------------|--------------------0----|--------------------------|
--0--0--0--0--0--0--0--0--|--0--0--0--0--0--0--0----|--0--0--0--0--0--0--0--0--|
--0--0--0--0--0--0--0--0--|--0--0--0--0--0--0--0----|--0--0--0--0--0--0--0--0--|
--1--1--1--1--1--1--1--2/-|--5--5--5--2--2--2--2----|--1--1--1--1--1--1--1--2/-|
--1--1--1--1--1--1--1--2/-|--5--5--5--2--2--2--2----|--1--1--1--1--1--1--1--2/-|


                                                                               
--------------------0----|--------------------------|--------------------0----|
--------------------0----|--------------------------|--------------------0----|
--0--0--0--0--0--0--0----|--0--0--0--0--0--0--0--0--|--0--0--0--0--0--0--0----|
--0--0--0--0--0--0--0----|--0--0--0--0--0--0--0--0--|--0--0--0--0--0--0--0----|
--5--5--5--2--2--2--2----|--1--1--1--1--1--1--1--2/-|--5--5--5--2--2--2--2----|
--5--5--5--2--2--2--2----|--1--1--1--1--1--1--1--2/-|--5--5--5--2--2--2--2----|


                                                                                  
--------------------------|--------------------0----||---------------------------|
--------------------------|-----------------0--0----||---------------------------|
--0--0--0--0--0--0--0--0--|--0--0--0--0--0--0--0----||*--------------------------|
--0--0--0--0--0--0--0--0--|--0--0--0--0--0--0--0----||*--------------------------|
--1--1--1--1--1--1--1--2/-|--5--5--5--2--2--2--2----||---1--1--1--1--1--1--1--2/-|
--1--1--1--1--1--1--1--2/-|--5--5--5--2--2--2--2----||---1--1--1--1--1--1--1--2/-|


                                                                                 
--------------------0-----||--------------------------|--------------------0----|
--------------------0-----||--------------------------|--------------------0----|
--------------------0----*||--------------------------|--------------------0----|
-----------------0--0----*||--------------------------|-----------------0--0----|
--5--5--5--2--2--2--2-----||--1--1--1--1--1--1--1--2/-|--5--5--5--2--2--2--2----|
--5--5--5--2--2--2--2-----||--1--1--1--1--1--1--1--2/-|--5--5--5--2--2--2--2----|


                                                                                
--------------------------|--------------------0----|--------------------------|
--------------------------|-----------------0--0----|--0--0--0--0--0--0--0--0--|
--------------------------|--------------0--0--0----|--0--0--0--0--0--0--0--0--|
--------------------------|-----------0--0--0--0----|--0--0--0--0--0--0--0--0--|
--1--1--1--1--1--1--1--2/-|--5--5--5--2--2--2--2----|--1--1--1--1--1--1--1--2/-|
--1--1--1--1--1--1--1--2/-|--5--5--5--2--2--2--2----|--1--1--1--1--1--1--1--2/-|


                                                                               
-------------------------|--------------------------|-------------------------|
--0--0--0--0--0--0--0----|--0--0--0--0--0--0--0--0--|--0--0--0--0--0--0--0----|
--0--0--0--0--0--0--0----|--0--0--0--0--0--0--0--0--|--0--0--0--0--0--0--0----|
--0--0--0--0--0--0--0----|--0--0--0--0--0--0--0--0--|--0--0--0--0--0--0--0----|
--5--5--5--2--2--2--2----|--1--1--1--1--1--1--1--2/-|--5--5--5--2--2--2--2----|
--5--5--5--2--2--2--2----|--1--1--1--1--1--1--1--2/-|--5--5--5--2--2--2--2----|


                                                                                
--------------------------|-------------------------|--------------------------|
--0--0--0--0--0--0--0--0--|--0--0--0--0--0--0--0----|--0--0--0--0--0--0--0--0--|
--0--0--0--0--0--0--0--0--|--0--0--0--0--0--0--0----|--0--0--0--0--0--0--0--0--|
--0--0--0--0--0--0--0--0--|--0--0--0--0--0--0--0----|--0--0--0--0--0--0--0--0--|
--1--1--1--1--1--1--1--2/-|--5--5--5--2--2--2--2----|--1--1--1--1--1--1--1--2/-|
--1--1--1--1--1--1--1--2/-|--5--5--5--2--2--2--2----|--1--1--1--1--1--1--1--2/-|


                                                                                
-------------------------|--------------------------|--------------------------|
--0--0--0--0--0--0--0----|--------------------------|--------------------------|
--0--0--0--0--0--0--0----|--------------------------|--------------------------|
--0--0--0--0--0--0--0----|--------------------------|--------------------------|
--5--5--5--2--2--2--2----|--1--1--1--1--1--1--1--2/-|--5--5--5--2--2--2--2--2--|
--5--5--5--2--2--2--2----|--1--1--1--1--1--1--1--2/-|--5--5--5--2--2--2--2--2--|


                                                                                 
--------------------------|--------------------------|--------------------------|
--------------------------|--------------------------|--------------------------|
--------0-----------0-----|--------0-----------0-----|--------0-----------0-----|
--0--0--0--0--0--0--0--0--|--0--0--0--0--0--0--0--0--|-----0--0--0--0--0--0--0--|
--0--0--0--0--0--0--0--0--|--8--8--8--8--8--8--8--8--|--9--9--9--9--9--9--9--9--|
--0--0--0--0--0--0--0--0--|--8--8--8--8--8--8--8--8--|--9--9--9--9--9--9--9--9--|


                                                                                 
--------------------------|--------------------------|--------------------------|
--------------------------|--------------------------|--------------------------|
--------0-----------0-----|--------0-----------0-----|--------0-----------0-----|
-----0--0--0--0--0--0--0--|--0--0--0--0--0--0--0--0--|--0--0--0--0--0--0--0--0--|
--5--5--5--5--5--5--5--5--|--0--0--0--0--0--0--0--0--|--8--8--8--8--8--8--8--8--|
--5--5--5--5--5--5--5--5--|--0--0--0--0--0--0--0--0--|--8--8--8--8--8--8--8--8--|


                                                                               
--------------------------|------------------------|--------------------------|
--------------------------|------------------------|--------------------------|
--------0-----------0-----|--------0---------0-----|--------0-----------0-----|
-----0--0--0--0--0--0--0--|-----0--0------0--0-----|--0--0--0--0--0--0--0--0--|
--9--9--9--9--9--9--9--9--|--5--5--5------7--7--7--|--0--0--0--0--0--0--0--0--|
--9--9--9--9--9--9--9--9--|--5--5--5------7--7--7--|--0--0--0--0--0--0--0--0--|


                                                                                 
--------------------------|--------------------------|--------------------------|
--------------------------|--------------------------|--------------------------|
--------0-----------0-----|--------0-----------0-----|--------0-----------0-----|
--0--0--0--0--0--0--0--0--|-----0--0--0--0--0--0--0--|-----0--0--0--0--0--0--0--|
--8--8--8--8--8--8--8--8--|--9--9--9--9--9--9--9--9--|--5--5--5--5--5--5--5--5--|
--8--8--8--8--8--8--8--8--|--9--9--9--9--9--9--9--9--|--5--5--5--5--5--5--5--5--|


                                                                                 
--------------------------|--------------------------|--------------------------|
--------------------------|--------------------------|--------------------------|
--------0-----------0-----|--------0-----------0-----|--------0-----------0-----|
--0--0--0--0--0--0--0--0--|--0--0--0--0--0--0--0--0--|-----0--0--0--0--0--0--0--|
--0--0--0--0--0--0--0--0--|--8--8--8--8--8--8--8--8--|--9--9--9--9--9--9--9--9--|
--0--0--0--0--0--0--0--0--|--8--8--8--8--8--8--8--8--|--9--9--9--9--9--9--9--9--|


                                                                                   
-------------------------||---------------------------|--------------------------||
-------------------------||---------------------------|--------------------0-----||
-------0-----------0-----||*--------------------------|--------------------0----*||
----0--0--------0--0--0--||*--0--0--0--0--0--0--0--0--|--0--0--0--0--0--0--0----*||
----5--5--5--5--7--7--7--||---1--1--1--1--1--1--1--2/-|--5--5--5--2--2--2--2-----||
----5--5--5--5--7--7--7--||---1--1--1--1--1--1--1--2/-|--5--5--5--2--2--2--2-----||


                                                                                
--------------------------|--------------------0----|--------------------------|
--------------------------|--------------------0----|--------------------------|
--------------------------|--------------------0----|--------------------------|
--0--0--0--0--0--0--0--0--|--0--0--0--0--0--0--0----|--0--0--0--0--0--0--0--0--|
--1--1--1--1--1--1--1--2/-|--5--5--5--2--2--2--2----|--1--1--1--1--1--1--1--2/-|
--1--1--1--1--1--1--1--2/-|--5--5--5--2--2--2--2----|--1--1--1--1--1--1--1--2/-|


                                                                               
--------------------0----|--------------------------|--------------------0----|
--------------------0----|--------------------------|--------------------0----|
--------------------0----|--------------------------|--------------------0----|
--0--0--0--0--0--0--0----|--0--0--0--0--0--0--0--0--|--0--0--0--0--0--0--0----|
--5--5--5--2--2--2--2----|--1--1--1--1--1--1--1--2/-|--5--5--5--2--2--2--2----|
--5--5--5--2--2--2--2----|--1--1--1--1--1--1--1--2/-|--5--5--5--2--2--2--2----|


                                                                                
--------------------------|--------------------0----|--------------------------|
--------------------------|--------------------0----|--------------------------|
--------------------------|--------------------0----|--------------------------|
--0--0--0--0--0--0--0--0--|--0--0--0--0--0--0--0----|--0--0--0--0--0--0--0--0--|
--1--1--1--1--1--1--1--2/-|--5--5--5--2--2--2--2----|--1--1--1--1--1--1--1--2/-|
--1--1--1--1--1--1--1--2/-|--5--5--5--2--2--2--2----|--1--1--1--1--1--1--1--2/-|


                                                                               
-------------------------|--------------------------|-------------------------|
-------------------------|--------------------------|-------------------------|
-------------------------|--------------------------|-------------------------|
--0--0--0--0--0--0--0----|--0--0--0--0--0--0--0--0--|--0--0--0--0--0--0--0----|
--5--5--5--2--2--2--2----|--1--1--1--1--1--1--1--2/-|--5--5--5--2--2--2--2----|
--5--5--5--2--2--2--2----|--1--1--1--1--1--1--1--2/-|--5--5--5--2--2--2--2----|


                                                                                
--------------------------|-------------------------|--------------------------|
--------------------------|-------------------------|--------------------------|
--------------------------|-------------------------|--------------------------|
--0--0--0--0--0--0--0--0--|--0--0--0--0--0--0--0----|--0--0--0--0--0--0--0--0--|
--1--1--1--1--1--1--1--2--|--5--5--5--2--2--2--2----|--1--1--1--1--1--1--1--1--|
--1--1--1--1--1--1--1--2--|--5--5--5--2--2--2--2----|--1--1--1--1--1--1--1--1--|


                                                                               
-------------------------|--------------------------|--------------------0----|
-------------------------|--------------------------|--------------------0----|
-------------------------|--------------------------|-----------------0--0----|
--0--0--0--0--0--0--0----|--0--0--0--0--0--0--0--0--|--0--0--0--0--0--0--0----|
--5--5--5--2--2--2--2----|--1--1--1--1--1--1--1--2/-|--5--5--5--2--2--2--2----|
--5--5--5--2--2--2--2----|--1--1--1--1--1--1--1--2/-|--5--5--5--2--2--2--2----|


                                                                                 
--------------------------|--------------------------|--------------------------|
--------------------------|--------------------------|--------------------------|
--------0-----------0-----|--------0-----------0-----|--------0-----------0-----|
--0--0--0--0--0--0--0--0--|--0--0--0--0--0--0--0--0--|-----0--0--0--0--0--0--0--|
--0--0--0--0--0--0--0--0--|--8--8--8--7--7--7--7--7--|--9--9--9--9--9--9--9--9--|
--0--0--0--0--0--0--0--0--|--8--8--8--8--8--8--8--8--|--9--9--9--9--9--9--9--9--|


                                                                                 
--------------------------|--------------------------|--------------------------|
--------------------------|--------------------------|--------------------------|
--------0-----------0-----|--------0-----------0-----|--------0-----------0-----|
-----0--0--0--0--0--0--0--|--0--0--0--0--0--0--0--0--|--0--0--0--0--0--0--0--0--|
--5--5--5--5--5--5--5--5--|--0--0--0--0--0--0--0--0--|--8--8--8--8--8--8--8--8--|
--5--5--5--5--5--5--5--5--|--0--0--0--0--0--0--0--0--|--8--8--8--8--8--8--8--8--|


                                                                                 
--------------------------|--------------------------|--------------------------|
--------------------------|--------------------------|--------------------------|
--------0-----------0-----|--------0-----------0-----|--------0-----------0-----|
-----0--0--0--0--0--0--0--|-----0--0--0--0--0--0--0--|--0--0--0--0--0--0--0--0--|
--9--9--9--9--9--9--9--9--|--5--5--5--5--5--5--5--5--|--0--0--0--0--0--0--0--0--|
--9--9--9--9--9--9--9--9--|--5--5--5--5--5--5--5--5--|--0--0--0--0--0--0--0--0--|


                                                                                 
--------------------------|--------------------------|--------------------------|
--------------------------|--------------------------|--------------------------|
--------0-----------0-----|--------0-----------0-----|--------0-----------0-----|
--0--0--0--0--0--0--0--0--|-----0--0--0--0--0--0--0--|-----0--0--0--0--0--0--0--|
--8--8--8--7--7--7--7--7--|--9--9--9--9--9--9--9--9--|--5--5--5--4--4--4--5--5--|
--8--8--8--8--8--8--8--8--|--9--9--9--9--9--9--9--9--|--5--5--5--5--5--5--5--5--|


                                                                                 
--------------------------|--------------------------|--------------------------|
--------------------------|--------------------------|--------------------------|
--------0-----------0-----|--------0-----------0-----|--------0-----------0-----|
--0--0--0--0--0--0--0--0--|--0--0--0--0--0--0--0--0--|-----0--0--0--0--0--0--0--|
--0--0--0--0--0--0--0--0--|--8--8--8--8--8--8--8--8--|--9--9--9--9--9--9--9--9--|
--0--0--0--0--0--0--0--0--|--8--8--8--8--8--8--8--8--|--9--9--9--9--9--9--9--9--|


                                                                              
-----------------------|--------------------------|--------------------------|
-----------------------|--------------------------|--------------------------|
-------0------------0--|--------0-----------0-----|--------0-----------0-----|
----0--0------0--0--0--|--0--0--0--0--0--0--0--0--|--0--0--0--0--0--0--0--0--|
----5--5------7--7--7--|--0--0--0--0--0--0--0--0--|--8--8--8--8--8--8--8--8--|
----5--5------7--7--7--|--0--0--0--0--0--0--0--0--|--8--8--8--8--8--8--8--8--|


                                                                                 
--------------------------|--------------------------|--------------------------|
--------------------------|--------------------------|--------------------------|
--------0-----------0-----|--------0-----------0-----|--------0-----------0-----|
-----0--0--0--0--0--0--0--|--0--0--0--0--0--0--0--0--|--0--0--0--0--0--0--0--0--|
--9--9--9--9--9--9--9--9--|--5--5--5--7--7--7--7--7--|--0--0--0--0--0--0--0--0--|
--9--9--9--9--9--9--9--9--|--5--5--5--7--7--7--7--7--|--0--0--0--0--0--0--0--0--|


                                                                               
--------------------------|--------------------------|------------------------|
--------------------------|--------------------------|------------------------|
--------0-----------0-----|--------0-----------0-----|-------0----------0--0--|
--0--0--0--0--0--0--0--0--|-----0--0--0--0--0--0--0--|----0--0----0--0--0--0--|
--8--8--8--8--8--8--8--8--|--9--9--9--9--9--9--9--9--|----5--5----5--5--5--5--|
--8--8--8--8--8--8--8--8--|--9--9--9--9--9--9--9--9--|----5--5----5--5--5--5--|


                                                                                 
--------------------------|--------------------------|--------------------------|
--------------------------|--------------------------|--------------------------|
--0--0--0--0--0--0--0--0--|--0--0--0--0--0--0--0--0--|--0--0--0--0--0--0--0--0--|
--0--0--0--0--0--0--0--0--|--0--0--0--0--0--0--0--0--|--0--0--0--0--0--0--0--0--|
--1--1--1--1--1--1--1--2/-|--5--5--5--2--2--2--2--2--|--1--1--1--1--1--1--1--2/-|
--1--1--1--1--1--1--1--2/-|--5--5--5--2--2--2--2--2--|--1--1--1--1--1--1--1--2/-|


                                                                                 
--------------------------|--------------------------|--------------------------|
--------------------------|--------------------------|--------------------------|
--0--0--0--0--0--0--0--0--|--0--0--0--0--0--0--0--0--|--0--0--0--0--0--0--0--0--|
--0--0--0--0--0--0--0--0--|--0--0--0--0--0--0--0--0--|--0--0--0--0--0--0--0--0--|
--5--5--5--2--2--2--2--2--|--1--1--1--1--1--1--1--2/-|--5--5--5--2--2--2--2--2--|
--5--5--5--2--2--2--2--2--|--1--1--1--1--1--1--1--2/-|--5--5--5--2--2--2--2--2--|


                                                                                 
--------------------------|--------------------------|--------------------------|
--------------------------|--------------------------|--------------------------|
--0--0--0--0--0--0--0--0--|--0--0--0--0--0--0--0--0--|--0--0--0--0--0--0--0--0--|
--0--0--0--0--0--0--0--0--|--0--0--0--0--0--0--0--0--|--0--0--0--0--0--0--0--0--|
--1--1--1--1--1--1--1--2/-|--5--5--5--2--2--2--2--2--|--1--1--1--1--1--1--1--2/-|
--1--1--1--1--1--1--1--2/-|--5--5--5--2--2--2--2--2--|--1--1--1--1--1--1--1--2/-|


                                                                               
--------------------0----|--------------------------|--------------------0----|
--------------------0----|--------------------------|--------------------0----|
--0--0--0--0--0--0--0----|--0--0--0--0--0--0--0--0--|--0--0--0--0--0--0--0----|
--0--0--0--0--0--0--0----|--0--0--0--0--0--0--0--0--|--0--0--0--0--0--0--0----|
--5--5--5--2--2--2--2----|--1--1--1--1--1--1--1--2/-|--5--5--5--2--2--2--2----|
--5--5--5--2--2--2--2----|--1--1--1--1--1--1--1--2/-|--5--5--5--2--2--2--2----|


                                                                                
--------------------------|--------------------0----|--------------------------|
--------------------------|--------------------0----|--------------------------|
--0--0--0--0--0--0--0--0--|--0--0--0--0--0--0--0----|--------------------------|
--0--0--0--0--0--0--0--0--|--0--0--0--0--0--0--0----|--0--0--0--0--0--0--0--0--|
--1--1--1--1--1--1--1--2/-|--5--5--5--2--2--2--2----|--1--1--1--1--1--1--1--2/-|
--1--1--1--1--1--1--1--2/-|--5--5--5--2--2--2--2----|--1--1--1--1--1--1--1--2/-|


                                              
-------------------------|------------------||
-------------------------|------------------||
-------------------------|------------------||
--0--0--0--0--0--0--0----|------------------||
--5--5--5--2--2--2--2----|------------------||
--5--5--5--2--2--2--2----|------------------||





Comments


Popular That Dog tabs & chords
Annie Bass Tabs
I'm Gonna See You 1 Bass Tabs
Ridiculous 1 Bass Tabs
She Doesn't Know How Chords
I'm Gonna See You Tabs
Long Island Tabs
Never Say Never Tabs
One Summer Night Tabs
Raina Tabs
Ms Wrong Ukulele


Song lyrics



↑ Back to top | Tablatures and chords are parodies/interpretations of the original songs. You may use it for private study, scholarship, research or language learning purposes only
© 2014 AZChords.com Contact us | Privacy policy | DMCA | Add/correct tabs | Request tabs | Top 50 tabs