» » »

You Give Me Loving Tabs (ver.1)

Artists:  A B C D E F G H I J K L M N O P Q R S T U V W X Y Z # 

You Give Me Loving Tabs (ver.1)

Ten Years After
Rating:
5/5 (4 votes)
Tabs too difficult? Try these video lessons and learn fast.
                "You Give Me Loving"
Ten Years After
Recorded Live 


This is the first tab I've submitted on the site, and yes, this is my OWN work. I'm a
huge T.Y.A. fan, and saw only a few tabs submitted for their stuff, so I decided to
add something to the collection. The song is 6:02  long, and even though I haven't
added the solo (yet), it looks like a lot. Honestly, though, it's mainly the same
thing over and over again with some minor alterations. So listen to the CD for timing,
and have fun.

P.S. - I'm positive it's atleast 95% accurate, with only a couple of questionable notes.
I doubt anyone would trully notice, though, and if it bothers you to the point you want
to hang yourself... go ahead and do it.

Intro

e|-------------------------------|
B|-------------------------------|
G|----------12-12----------------|
D|----12-14-------12-14(let ring)|
A|-14----------------------------|
E|-------------------------------|

e|-------------------------------|
B|-------------------------------|
G|----------12-12----------------|
D|----12-14-------12-14(let ring)|
A|-14----------------------------|
E|-------------------------------|

e|-------------------------------|
B|-------------------------------|
G|----------12-12----------------|
D|----12-14-------12-14(let ring)|
A|-14----------------------------|
E|-------------------------------|

e|---------------------------------------------|
B|---------------------------------------------|
G|----------12-12------------------------------|
D|----12-14-------12-14(let ring and slide down|
A|-14------------------------------------------|
E|---------------------------------------------|

Verse 1

e|----------------------|---------|
B|----------12-12-------|---------|
G|----------12-12-------|-9-9/7-9-|
D|----12-14-------12-14-|-9-9/5-7-|
A|-14-------------------|-7-7/5-7-|
E|----------------------|---------|

e|----------------------|---------|
B|----------------------|---------|
G|----------12-12-------|-9-9/7-9-|
D|----12-14-------12-14-|-9-9/5-7-|
A|-14-------------------|-7-7/5-7-|
E|----------------------|---------|

e|----------------------|---------|
B|----------------------|---------|
G|----------12-12-------|-9-9/7-9-|
D|----12-14-------12-14-|-9-9/5-7-|
A|-14-------------------|-7-7/5-7-|
E|----------------------|---------|

e|----------------------|---------|
B|----------------------|---------|
G|----------12-12-------|-9-9/7-9-|
D|----12-14-------12-14-|-9-9/5-7-|
A|-14-------------------|-7-7/5-7-|
E|----------------------|---------|

e|----------------------|---------|
B|----------------------|---------|
G|----------12-12-------|-9-9/7-9-|
D|----12-14-------12-14-|-9-9/5-7-|
A|-14-------------------|-7-7/5-7-|
E|----------------------|---------|
                         You give me loving that I can't return
e|----------------------|-------------------------|
B|----------------------|-------------------------|
G|----------12-12-------|-------------------------|
D|----12-14-------12-14-|(ring)-------------------|
A|-14-------------------|-------------------------|
E|----------------------|-------------------------|
                         You give my money that you know I'll burn
e|----------------------|-----------------------------------------|
B|----------------------|-----------------------------------------|
G|----------12-12-------|-----------------------------------------|
D|----12-14-------12-14-|(ring)-----------------------------------|
A|-14-------------------|-----------------------------------------|
E|----------------------|-----------------------------------------|
                         Give me loving just so you will see
e|----------------------|-----------------------------------|
B|----------------------|-----------------------------------|
G|----------12-12-------|-----------------------------------|
D|----12-14-------12-14-|(ring)-----------------------------|
A|-14-------------------|-----------------------------------|
E|----------------------|-----------------------------------|
                         Only giving some that you can tell
e|----------------------|----------------------------------|
B|----------------------|----------------------------------|
G|----------12-12-------|----------------------------------|
D|----12-14-------12-14-|(ring)----------------------------|
A|-14-------------------|----------------------------------|
E|----------------------|----------------------------------|
                                Hit the loving and adjust me back
e|--------------------------------|---------------------------------|
B|--------------------------------|---------------------------------|
G|----------12---14p12------------|---------------------------------|
D|----12-14----14--------14-12-14-|(ring)---------------------------|
A|-14-----------------------------|---------------------------------|
E|--------------------------------|---------------------------------|
                         You give me money and it makes me sad
e|----------------------|----------------------------|
B|----------------------|----------------------------|
G|----------12-12-------|----------------------------|
D|----12-14-------12-14-|(ring)----------------------|
A|-14-------------------|----------------------------|
E|----------------------|----------------------------|
                         Gimme loving just enjoy your time
e|----------------------|------------------------|
B|----------------------|------------------------|
G|----------12-12-------|------------------------|
D|----12-14-------12-14-|(ring)------------------|
A|-14-------------------|------------------------|
E|----------------------|------------------------|
                         Gonna love you cause I'm so so glad
e|----------------------|-----------------------------------|
B|----------------------|-----------------------------------|
G|----------12-12-------|-----------------------------------|
D|----12-14-------12-14-|(ring)-----------------------------|
A|-14-------------------|-----------------------------------|
E|----------------------|-----------------------------------|

Bridge

e|---------------------|-------------------|
B|----------17sb-15-17-|-------------------|
G|----12-14------------|-------------------|
D|-14------------------|----12-14-14-12----|
A|---------------------|-14-------------14-|
E|---------------------|-------------------|

e|---------------------|-------------------|
B|----------17sb-15-17-|-------------------|
G|----12-14------------|-------------------|
D|-14------------------|----12-14-14-12----|
A|---------------------|-14-------------14-|
E|---------------------|-------------------|

e|---------------------|-------------------|
B|----------17sb-15-17-|-------------------|
G|----12-14------------|-------------------|
D|-14------------------|----12-14-14-12----|
A|---------------------|-14-------------14-|
E|---------------------|-------------------|

e|-------------------------------------------|
B|----------12-15----------------------------|
G|----12-14-------14p12----------------------|
D|-14-------------------14-14p12-------------|
A|-------------------------------14-12-10----|
E|----------------------------------------12-|

Verse 2

e|-------------------------|---------|
B|----------12----12-------|---------|
G|----------12----12-------|-9-9/7-9-|
D|----12-14----14----12-14-|-9-9/5-7-|
A|-14----------------------|-7-7/5-7-|
E|-------------------------|---------|

e|-------------------------|---------|
B|----------12----12-------|---------|
G|----------12----12-------|-9-9/7-9-|
D|----12-14----14----12-14-|-9-9/5-7-|
A|-14----------------------|-7-7/5-7-|
E|-------------------------|---------|


e|-------------------------|---------|
B|----------12----12-------|---------|
G|----------12----12-------|-9-9/7-9-|
D|----12-14----14----12-14-|-9-9/5-7-|
A|-14----------------------|-7-7/5-7-|
E|-------------------------|---------|

e|-------------------------|---------|
B|----------12----12-------|---------|
G|----------12----12-------|-9-9/7-9-|
D|----12-14----14----12-14-|-9-9/5-7-|
A|-14----------------------|-7-7/5-7-|
E|-------------------------|---------|
                            Keep on running cause I know the score
e|-------------------------|--------------------------------------|
B|----------12----12-------|--------------------------------------|
G|----------12----12-------|--------------------------------------|
D|----12-14----14----12-14-|(ring)--------------------------------|
A|-14----------------------|--------------------------------------|
E|-------------------------|--------------------------------------|
			Baby find me coming back for more
e|-------------------------|----------------------------------|
B|----------12-------------|----------------------------------|
G|----------12----12-------|----------------------------------|
D|----12-14----14----12-14-|(ring)----------------------------|
A|-14----------------------|----------------------------------|
E|-------------------------|----------------------------------|
			Catch you later cause I'm gonna split
e|-------------------------|-------------------------------------|
B|----------12-------------|-------------------------------------|
G|----------12----12-------|-------------------------------------|
D|----12-14----14----12-14-|(ring)-------------------------------|
A|-14----------------------|-------------------------------------|
E|-------------------------|-------------------------------------|
			In the night I'm gonna need a bit
e|-------------------------|---------------------------------|
B|----------12-------------|---------------------------------|
G|----------12----12-------|---------------------------------|
D|----12-14----14----12-14-|(ring)---------------------------|
A|-14----------------------|---------------------------------|
E|-------------------------|---------------------------------|
			      In the loving that I can't return
e|-------------------------------|----------------------------------|
B|----------12-------------------|----------------------------------|
G|----------12----14p12----------|----------------------------------|
D|----12-14----14-------14-12-14-|(ring)----------------------------|
A|-14----------------------------|----------------------------------|
E|-------------------------------|----------------------------------|
			      In the man I let you know I was
e|-------------------------------|--------------------------------|
B|----------12-------------------|--------------------------------|
G|----------12----14p12----------|--------------------------------|
D|----12-14----14-------14-12-14-|(ring)--------------------------|
A|-14----------------------------|--------------------------------|
E|-------------------------------|--------------------------------|
			      Let me love you just for your own sake
e|-------------------------------|---------------------------------------|
B|----------12-------------------|---------------------------------------|
G|----------12----14p12----------|---------------------------------------|
D|----12-14----14-------14-12-14-|(ring)---------------------------------|
A|-14----------------------------|---------------------------------------|
E|-------------------------------|---------------------------------------|
			I want to give it so that you can take
e|-------------------------|---------------------------------------|
B|----------12-------------|---------------------------------------|
G|----------12----12-------|---------------------------------------|
D|----12-14----14----12-14-|(ring)---------------------------------|
A|-14----------------------|---------------------------------------|
E|-------------------------|---------------------------------------|

Bridge

e|---------------------|-------------------|
B|----------17sb-15-17-|-------------------|
G|----12-14------------|-------------------|
D|-14------------------|----12-14-14-12----|
A|---------------------|-14-------------14-|
E|---------------------|-------------------|

e|---------------------|-------------------|
B|----------17sb-15-17-|-------------------|
G|----12-14------------|-------------------|
D|-14------------------|----12-14-14-12----|
A|---------------------|-14-------------14-|
E|---------------------|-------------------|

e|---------------------|-------------------|
B|----------17sb-15-17-|-------------------|
G|----12-14------------|-------------------|
D|-14------------------|----12-14-14-12----|
A|---------------------|-14-------------14-|
E|---------------------|-------------------|

e|-------------------------------------------|
B|----------12-15----------------------------|
G|----12-14-------14p12----------------------|
D|-14-------------------14-14p12-------------|
A|-------------------------------14-12-10----|
E|----------------------------------------12-|

Solo

Basically Alvin just creates some licks using different scales. If I ever feel like
adding in the solo, I will do so, but for now just do as I advise. 

Verse 3

e|----------------------------------|
B|----------12----------------------|
G|----------12----12----------12----|
D|----12-14----14----12-14(let ring)|
A|-14-------------------------------|
E|----------------------------------|

e|----------------------------------|
B|----------12----------------------|
G|----------12----12----------12----|
D|----12-14----14----12-14(let ring)|
A|-14-------------------------------|
E|----------------------------------|

e|----------------------------------|
B|----------12----------------------|
G|----------12----12----------12----|
D|----12-14----14----12-14(let ring)|
A|-14-------------------------------|
E|----------------------------------|

e|----------------------------------|
B|----------12----------------------|
G|----------12----12----------12----|
D|----12-14----14----12-14(let ring)|
A|-14-------------------------------|
E|----------------------------------|

e|-------------------------|---------|
B|----------12----12-------|---------|
G|----------12----12-------|-9-9/7-9-|
D|----12-14----14----12-14-|-9-9/5-7-|
A|-14----------------------|-7-7/5-7-|
E|-------------------------|---------|


e|-------------------------|---------|
B|----------12----12-------|---------|
G|----------12----12-------|-9-9/7-9-|
D|----12-14----14----12-14-|-9-9/5-7-|
A|-14----------------------|-7-7/5-7-|
E|-------------------------|---------|

e|-------------------------|---------|
B|----------------12-------|---------|
G|----------12----12-------|-9-9/7-9-|
D|----12-14----14----12-14-|-9-9/5-7-|
A|-14----------------------|-7-7/5-7-|
E|-------------------------|---------|

e|-------------------------|---------|
B|----------12----12-------|---------|
G|----------12----12-------|-9-9/7-9-|
D|----12-14----14----12-14-|-9-9/5-7-|
A|-14----------------------|-7-7/5-7-|
E|-------------------------|---------|

			Busy loving and it's plain t'see
e|-------------------------|---------------------------------------|
B|----------12-------------|---------------------------------------|
G|----------12----12-------|---------------------------------------|
D|----12-14----14----12-14-|(ring)---------------------------------|
A|-14----------------------|---------------------------------------|
E|-------------------------|---------------------------------------|
			Want to give it to me all but free
e|-------------------------|-----------------------------------|
B|----------12-------------|-----------------------------------|
G|----------12----12-------|-----------------------------------|
D|----12-14----14----12-14-|(ring)-----------------------------|
A|-14----------------------|-----------------------------------|
E|-------------------------|-----------------------------------|
			I can't take it cause you need it back
e|-------------------------|---------------------------------------|
B|----------12-------------|---------------------------------------|
G|----------12----12-------|---------------------------------------|
D|----12-14----14----12-14-|(ring)---------------------------------|
A|-14----------------------|---------------------------------------|
E|-------------------------|---------------------------------------|
			I won't give cause it's t'one I like
e|-------------------------|-------------------------------------|
B|----------12-------------|-------------------------------------|
G|----------12----12-------|-------------------------------------|
D|----12-14----14----12-14-|(ring)-------------------------------|
A|-14----------------------|-------------------------------------|
E|-------------------------|-------------------------------------|

			      Tender loving that I give in turn
e|-------------------------------|----------------------------------|
B|----------12-------------------|----------------------------------|
G|----------12----14p12----------|----------------------------------|
D|----12-14----14-------14-12-14-|(ring)----------------------------|
A|-14----------------------------|----------------------------------|
E|-------------------------------|----------------------------------|
			      Give me money that you know I'll burn
e|-------------------------------|--------------------------------------|
B|----------12-------------------|--------------------------------------|
G|----------12----14p12----------|--------------------------------------|
D|----12-14----14-------14-12-14-|(ring)--------------------------------|
A|-14----------------------------|--------------------------------------|
E|-------------------------------|--------------------------------------|
			I need freedom more than I need gold
e|-------------------------|-------------------------------------|
B|-------------------------|-------------------------------------|
G|----------12----12-------|-------------------------------------|
D|----12-14----14----12-14-|(ring)-------------------------------|
A|-14----------------------|-------------------------------------|
E|-------------------------|-------------------------------------|
			Cause I'm leaving fore I get too old
e|-------------------------|-------------------------------------|
B|-------------------------|-------------------------------------|
G|----------12----12-------|-------------------------------------|
D|----12-14----14----12-14-|(ring)-------------------------------|
A|-14----------------------|-------------------------------------|
E|-------------------------|-------------------------------------|

Outro

e|------------------------|----------------------|
B|-------------17sb-15-17-|----------------------|
G|----12-14p12------------|----------------------|
D|-14---------------------|----12-14p12-14-12----|
A|------------------------|-14----------------14-|
E|------------------------|----------------------|

e|------------------------|----------------------|
B|-------------17sb-15-17-|----------------------|
G|----12-14p12------------|----------------------|
D|-14---------------------|----12-14p12-14-12----|
A|------------------------|-14----------------14-|
E|------------------------|----------------------|

e|------------------------|----------------------|
B|-------------17sb-15-17-|----------------------|
G|----12-14p12------------|----------------------|
D|-14---------------------|----12-14p12-14-12----|
A|------------------------|-14----------------14-|
E|------------------------|----------------------|

e|----------------------------------------|
B|----------12-15-------------------------|
G|----12-14-------14p12-------------------|
D|-14-------------------14-14p12----------|
A|-------------------------------14-12-10-|
E|----------------------------------------|

e|----------------------------------|
B|----------------------------------|
G|----------------------------------|
D|----------9-12--------------------|
A|----10-12------12p10--------------|
E|-12------------------12-12p10-5-3-|

e|----------------------|
B|----------------------|
G|----------------------|
D|---------0----------2-|
A|-----0-2---0--------2-|
E|-0-3---------h2-0-3-0-|

| (let ring)	let ring
| /		slide down
| p		pull off
| sb		slight bend (1/2 step)		 
| h		hammer on
=============================================================================

Thank you! Please rate. I spent my entire f**king day figuring this out and tabbing
it. Hopefully I'll find the patience to tab the solo in the near future.

But until then...

Cheerio!
            
Tabs too difficult? Try these video lessons and learn fast.


comments powered by Disqus
↑ Back to top | Tablatures and chords are parodies/interpretations of the original songs. You may use it for private study, scholarship, research or language learning purposes only