>
 >
Positive Vibrations

Positive Vibrations Chords

Ten Years After - Positive Vibrations chords, tabs, tablatures, lyrics

Guitar lessons | Add/correct | Request | Top 50 tabs Artists:  A B C D E F G H I J K L M N O P Q R S T U V W X Y Z 0-9

Positive Vibrations Chords – Ten Years After

CD, Sheet music, Poster

Do you like Positive Vibrations? Share with your friends now
Chords
Ten Years After
1973
Written by Alvin Lee


G   D  Em (Riff 1)
In the night
        
E--12/10\12--(Riff 1)
B-------------------

            G     (Riff 2)
When you're all alone
                            
B------(Riff 2)
G--------4-7-4
D--5-7--------


 G    D  Em (Riff 1)
With the one

          G          (Riff 3)
That you call your own

B------(Riff 3)
G--4-2-0-----0
D----------2--


G     D  Em (Riff 1)
Ask yourself

           G
If you're doin' good

G------------4-7-4------
D------5-7----------7-5
A---7--------------------


 Am                 C           G
Give yourself some positive vibrations


G-------------4-7-4-2-0--4--0-2-
D--------5----------------------
A--5-7--------------------------

Am                  C           G  (Riff 3)
Give yourself some positive vibrations

 G    D    Em (Riff 1)
Well the skies

           G        (Riff 2)
They look down on you

G    D   Em (Riff 1)
And the stars

           G              (Riff 3)
They will guide you through

G    D   Em (Riff 1)
On this plane

        G
That we all live on

B---------------5----------------
G---------4-7------7---4--2--0--2
D--5-7---------------------------


Am                  C           G
Give yourself some positive vibrations

G------------4-7---4--2--0--2
D------5-7-------------------
A--7-------------------------

Am                  C            G D  Em
Give yourself some positive vi-bra-a-tions

G--4--2--0--2------0-------------0--2
D----------------2-------------2-----


 F        C             G
Too mamy wandering are wandering

E------------7--10---7--5-----
B------5-8-------------------8
G--7--------------------------

 F        C             G
Too many ponderers are pondering

E--12--10---12--10--------------------
B------------------------12--10-------
G-----------------------------------12

 F          C               G
Too many squanderers are squandering

E---------------12-10---12-10----------
B------------------------------12-10---
G----------4-7-----------------------12
D-------5------------------------------
A--5-7---------------------------------

Em
All you've got to do is let

      D
That sun come shinin' through

B--5--3---------
G----------4---0

Am                  C           G
Give yourself some positive vibrations

E----------------0-----------
B-------------3-----3--------
G------0--4-------------4---0
D--2-------------------------

Am                  C           G
Give yourself some positive vibrations

E--7--5----------------------------
B----------8--5--8-----------------
G----------------------------------
D---------------------------5--4--2

(Solo) G D Em   G     G D Em   G         

G D Em     Am  C  G     Am  C  G


 G   D  Em (Riff 1)
You can do

          G  (Riff 3)
What you want to do

   G   D   Em (Riff 1)
You can call

     G
The game you play

B----------------3------3---------
G------0--2--4-----4-------4--2--0
D--2------------------------------

 G   D  Em (Riff 1)
You can go

           G
Where you wanna go

B--5--3-------3---------------
G----------4-------4---4--2--0

Am                  C               G
Give yourself some positive vibrations

E--------3---7--10--12--10-------------
B--3--5---------------------12--10-----
G------------------------------------12

 Am                 C            G D  Em
Give yourself some positive vi-bra-a-tions

E--7--5--------------------------
B----------8--5--8---------------
G-------------------------------0
D------------------------0--2----

 F        C             G
Too many wanderers are wandering

E--12--10--12--10----------------
B----------------------12--10----
G------------------------------12

 F        C             G
Too many ponderers are pondering

E-------------------10--------
B-----8--10--12--------12-----
G--9------------------------12

 F          C               G
Too many squanderers are squandering

E---------3----5--7---10-------7--------
B--3--5---------------------8------8--10

Em
All you've got to do is let

      D                       
That sun come shinin' through

B--5--3--------
G----------4--0

Am                  C           G
Give yourself some positive vibrations

E----------3---7---10---7---5-----
B--3--5--------------------------8

Am                  C           G D  Em
Give yourself some positive vibra-a-tions

   G     D           Em
B--12---10--------------
G-----------------------
D---------------12--(14)





Comments


Popular Ten Years After tabs & chords
As The Sun Still Burns Away Bass Tabs
As The Sun Still Burns Away 1 Bass Tabs
Good Morning Little Schoolgirl Bass Tabs
I'd Love To Change The World Bass Tabs
Good Morning Little Schoolgirl Tabs
Good Morning Little Schoolgirl 1 Tabs
I Woke Up This Morning Tabs
Let The Sky Fall 1 Tabs
Think About The Times Tabs
Circles Ukulele


Song lyrics



↑ Back to top | Tablatures and chords are parodies/interpretations of the original songs. You may use it for private study, scholarship, research or language learning purposes only
© 2014 AZChords.com Contact us | Privacy policy | DMCA | Add/correct tabs | Request tabs | Top 50 tabs