» » »

Good Morning Little Schoolgirl Tabs (ver.2)

Artists:  A B C D E F G H I J K L M N O P Q R S T U V W X Y Z # 

Good Morning Little Schoolgirl Tabs (ver.2)

Ten Years After
Rating:
0/5 (0 votes)

Hard to play? Try these video lessons and learn fast.
                This is based off of the Live at Fillmore version.

Intro and main riff:
|-----------------|------------------|
|-----------------|------------------|
|-----------------|------------------|
|-0-2-2-2-2-0-----|------------------|
|-------------2---|-2----------------|
|-----------------|-----0---3---0----|

|-----------------|-------------------|
|-----------------|-------------------|
|-----------------|-------------------|
|-0-2-2-2-2-0-----|-------------------|
|-------------2---|-2-----------------|
|-----------------|-----0---3---/12\--|play this 2 times

Verse 1:
|-----------------------|-----------------------|
|-----------------------|------------12b--------|
|-----------------------|------------12b--------|
|-12-14-14-14-14-12-----|------------------14---|
|-------------------14--|-14--------------------|
|-----------------------|------12---------------|
this is played 12 times total; 4 without singing
and then 8 times with singing

Chorus 1:
|-----------------|---7-------------|
|-----------------|---7-------------|
|-----------------|---8-------------|
|-----------------|---9-----9---7---|
|-9-9-9-9-9-9-9-9-|-9-9-9-9-9---7---|
|-7-7-7-7-7-7-7-7-|-7-7-7-7-7---5---|
  * * * * * * * *   *   * *
|------------------------------|-------------------|
|---------15-------------------|-------------------|
|-----14b-----14p12------14-12-|-------------------|
|-5------------------14--------|-14v---------/19\--|
|-5----------------------------|-------------------|
|-3----------------------------|-------------------|

verse 2:
|-----------------|------------------|
|-----------------|------------------|
|-----------------|------------------|
|-0-2-2-2-2-0-----|------------------|
|-------------2---|-2----------------|
|-----------------|-----0---3---0----|

|-----------------|-------------------|
|-----------------|-------------------|
|-----------------|-------------------|
|-0-2-2-2-2-0-----|-------------------|
|-------------2---|-2-----------------|
|-----------------|-----0---3---/12\--|
this is played 2 times just like the intro
and then 4 more times. The /12\ is kind of hard
to hear, I think he plays it sometimes and
sometimes he doesn't

Chorus 2:
|-----------------|---7-------------|
|-----------------|---7-------------|
|-----------------|---8-------------|
|-----------------|---9-----9---7---|
|-9-9-9-9-9-9-9-9-|-9-9-9-9-9---7---|
|-7-7-7-7-7-7-7-7-|-7-7-7-7-7---5---|
  * * * * * * * *   *   * *
|------------------------------|-------------------|
|-----15--15-------------------|-------------------|
|-----14b-----14p12------14-12-|-------------------|
|-5------------------14--------|-14v---------/19\--|
|-5----------------------------|-------------------|
|-3----------------------------|-------------------|

then:
|-----------------|------------------|
|-----------------|------------------|
|-----------------|------------------|
|-0-2-2-2-2-0-----|------------------|
|-------------2---|-2----------------|
|-----------------|-----0---3---0----|

|-----------------|-------------------|
|-----------------|-------------------|
|-----------------|-------------------|
|-0-2-2-2-2-0-----|-------------------|
|-------------2---|-2-----------------|
|-----------------|-----0---3---/12\--|
play this twice just like the intro then play
the part below 4 times.

|-----------------------|-----------------------|
|-----------------------|------------12b--------|
|-----------------------|------------12b--------|
|-12-14-14-14-14-12-----|-----------------------|
|-------------------14--|-14--------------------|
|-----------------------|------12----------12---|

Here's the beginning of the solo. The spacing is not
supposed to accurate here, I'm just putting the notes.

|----------------------------------------------------|
|----------------------------------------------------|
|----------------------------------------12v---------|
|12-14-14-14-14p12-----------------12-14-------------|
|-----------------14-14p12---12-14-------------------|
|-------------------------15-------------------------|

|------------------------------------------------------------|
|--------------12-15p12--------------------------------------|
|-----12-14v-----------14p12--12-14--12------------12--------|
|-/14-----------------------14-----------14v---/14----14v----|
|------------------------------------------------------------|
|------------------------------------------------------------|

|----------------------------------------------|
|-----12h15p12-15b--15rp12-15b-15p12-----------|
|-/14-------------------------------14-12------|
|-----------------------------------------14---|
|----------------------------------------------|
|----------------------------------------------|

then some really fast stuff i can't figure out

he repeats this lick a few times through out the solo.
|---------12--15p12-14p12-15p12-14p12-15p12-14p12-15p12-14p12-|
|-12--15------------------------------------------------------|
|-------------------------------------------------------------|
|-------------------------------------------------------------|
|-------------------------------------------------------------|
|-------------------------------------------------------------|

|-15p12-14p12-15p12-14p12-15p12-14p12-15p12-14p12-15b---------|
|-------------------------------------------------------------|
|-------------------------------------------------------------|
|-------------------------------------------------------------|
|-------------------------------------------------------------|
|-------------------------------------------------------------|

This is played a few times at the end:
|---------------------------------------------|
|---------------------------------------------|
|---------------------------------------------|
|------12-----12-----12-----12----------------|
|-12h14--12h14--12h14--12h14--14p12\10--------|
|---------------------------------------12v---|

sorry i don't have anymore. The solo is pretty long
and its hard to figure out. Just keeping playing in
the E minor pentatonic and E blues.

After the solo Alvin plays the main riff palm muted then
not palm muted, then the chorus then another solo at
the end. You'll figure it out.
            
Hard to play? Try these video lessons and learn fast. | Correct




comments powered by Disqus
↑ Back to top | Tablatures and chords are parodies/interpretations of the original songs. You may use it for private study, scholarship, research or language learning purposes only