>
 >
Let It Go

Let It Go Guitar Tabs

Tenth Avenue North - Let It Go chords, tabs, tablatures, lyrics

Guitar lessons | Add/correct | Request | Top 50 tabs Artists:  A B C D E F G H I J K L M N O P Q R S T U V W X Y Z 0-9

Let It Go Guitar Tabs – Tenth Avenue North

CD, Sheet music, Poster

Do you like Let It Go? Share with your friends now
ChordsTabsUkulele
-------------------------------------------------------------------------------
                       LET IT GO  Tenth Avenue North
-------------------------------------------------------------------------------

Tuning: Standard [EABDGBe] (Capo #1)
_______________________________________________________________________________


intro (acoustic) | 2x

e|---------------------------------------------------------------------------|
B|----------------------0---0-----0--0---------------------------------------|
G|---1--1-----2-2-----------------------------------------------------------|
D|-2---2--2-2---2---0-0---0---0-0---0--0-------------------------------------|
A|---------------------------------------------------------------------------|
E|---------------------------------------------------------------------------|


verse (acoustic) | 4x

e|---------------------------------------------------------------------------|
B|----------------------0---0-----0--0---------------------------------------|
G|---1--1-----2-2-----------------------------------------------------------|
D|-2---2--2-2---2---0-0---0---0-0---0--0-------------------------------------|
A|---------------------------------------------------------------------------|
E|---------------------------------------------------------------------------|


chorus

  (guitar 1)

e|---------------------------------------------------------------------------|
B|---------------------------------------------------------------------------|
G|---------------------------------------------------------------------------|
D|-4/9-----------4/9---------------------------------------------------------|
A|-2/7\7/4-2-----2/7--\7\12--------------------------------------------------|
E|----\5/20----------\5\9---------------------------------------------------|
 |
 |
 |(guitar 2) - overdriven
 |
e|---------------------------------------------------------------------------|
B|---------------------------------------------------------------------------|
G|-6/9--\2/6------6/9--\2/6----6b7r6~~-(hold throughout pre verse)-----------|
D|-----------4--2-----------4-----------------------------------------------|
A|---------------------------------------------------------------------------|
E|---------------------------------------------------------------------------|


pre verse | 2x

e|---------------------------------------------------------------------------|
B|----------------------0---0-----0--0---------------------------------------|
G|---1--1-----2-2-----------------------------------------------------------|
D|-2---2--2-2---2---0-0---0---0-0---0--0-------------------------------------|
A|---------------------------------------------------------------------------|
E|---------------------------------------------------------------------------|



verse (acoustic) | 4x

e|---------------------------------------------------------------------------|
B|----------------------0---0-----0--0---------------------------------------|
G|---1--1-----2-2-----------------------------------------------------------|
D|-2---2--2-2---2---0-0---0---0-0---0--0-------------------------------------|
A|---------------------------------------------------------------------------|
E|---------------------------------------------------------------------------|

chorus

  (guitar 1)

e|---------------------------------------------------------------------------|
B|---------------------------------------------------------------------------|
G|---------------------------------------------------------------------------|
D|-4/9-----------4/9---------------------------------------------------------|
A|-2/7\7/4-2-----2/7--\7\12--------------------------------------------------|
E|----\5/20----------\5\9---------------------------------------------------|
 |
 |
 |(guitar 2) - overdriven
 |
e|---------------------------------------------------------------------------|
B|---------------------------------------------------------------------------|
G|-6/9--\2/6------6/9--\2/6----6b7r6~~-(hold throughout pre verse)-----------|
D|-----------4--2-----------4-----------------------------------------------|
A|---------------------------------------------------------------------------|
E|---------------------------------------------------------------------------|


bridge

e|---------------------------------------------------------------------------|
B|-9-9-9-9-9-9-9-9-10-10-10-10-10-10-10-10-----------------------------------|
G|-6-6-6-6-6-6-6-6-7-7--7--7--7--7--7--77-----------------------------------|
D|---------------------------------------------------------------------------|
A|---------------------------------------------------------------------------|
E|---------------------------------------------------------------------------|

                                                                            2x
e|---------------------------------------------------------------------------|
B|o-------------------------------------------------------------------------o|
G|---------------------------------------------------------------------------|
D|--9-9-9-9-9-9-9-9-11-11-11-11-11-11-11-11-6-6-6-6-6-6-6-6-7-7-7-7-7-7-7-7--|
A|o-7-7-7-7-7-7-7-7-9--9--9--9--9--9--9--9--4-4-4-4-4-4-4-4-5-5-5-5-5-5-5-5-o|
E|---------------------------------------------------------------------------|

e|---------------------------------------------------------------------------|
B|---------------------------------------------------------------------------|
G|---------------------------------------------------------------------------|
D|-9-9-9-9-9-9-9-9-----------------------------------------------------------|
A|-7-7-7-7-7-7-7-7-----------------------------------------------------------|
E|---------------------------------------------------------------------------|

e|-0-------------------------------------------------------------------------|
B|-2----5--------------------------------------------------------------------|
G|-2----4---------7----------------------------------------------------------|
D|-2----2----4----7----------------------------------------------------------|
A|-0---------4----5----------------------------------------------------------|
E|-----------2---------------------------------------------------------------|


outro | 2x

e|---------------------------------------------------------------------------|
B|----------------------0---0-----0--0---------------------------------------|
G|---1--1-----2-2-----------------------------------------------------------|
D|-2---2--2-2---2---0-0---0---0-0---0--0-------------------------------------|
A|---------------------------------------------------------------------------|
E|---------------------------------------------------------------------------|


| /  slide up
| \  slide down
| h  hammer-on
| p  pull-off
| ~  vibrato
| +  harmonic
| x  Mute note
===============================================================================





Comments


Popular Tenth Avenue North tabs & chords
Beyond Words 2 Chords
By Your Side 5 Chords
Captivate Me Chords
Love Is Here 6 Chords
Times 2 Chords
Worn 1 Chords
You Do All Things Well Chords
Love Is Here Intro 3 Tabs
You Are More Intro 1 Tabs
Healing Begins 2 Ukulele


Song lyrics



↑ Back to top | Tablatures and chords are parodies/interpretations of the original songs. You may use it for private study, scholarship, research or language learning purposes only
© 2014 AZChords.com Contact us | Privacy policy | DMCA | Add/correct tabs | Request tabs | Top 50 tabs