» » »

Tenth Avenue North, Let It Go Tabs (ver.1)

Artists:  A B C D E F G H I J K L M N O P Q R S T U V W X Y Z # 

Let It Go Tabs (ver.1)

Tenth Avenue North Tabs
Rating:
5/5 (2 votes)
Hard to play? Try these video lessons and learn fast.
                -------------------------------------------------------------------------------
                       LET IT GO – Tenth Avenue North
-------------------------------------------------------------------------------

Tuning: Standard [EABDGBe] (Capo #1)
_______________________________________________________________________________


intro (acoustic) | 2x

e|---------------------------------------------------------------------------|
B|----------------------0---0-----0--0---------------------------------------|
G|---1--1-----2—-2-----------------------------------------------------------|
D|-2---2--2-2---2---0-0---0---0-0---0--0-------------------------------------|
A|---------------------------------------------------------------------------|
E|---------------------------------------------------------------------------|


verse (acoustic) | 4x

e|---------------------------------------------------------------------------|
B|----------------------0---0-----0--0---------------------------------------|
G|---1--1-----2—-2-----------------------------------------------------------|
D|-2---2--2-2---2---0-0---0---0-0---0--0-------------------------------------|
A|---------------------------------------------------------------------------|
E|---------------------------------------------------------------------------|


chorus

  (guitar 1)

e|---------------------------------------------------------------------------|
B|---------------------------------------------------------------------------|
G|---------------------------------------------------------------------------|
D|-4/9-----------4/9---------------------------------------------------------|
A|-2/7\7/4-2-----2/7--\7\12--------------------------------------------------|
E|----\5/2—0----------\5\9---------------------------------------------------|
 |
 |
 |(guitar 2) - overdriven
 |
e|---------------------------------------------------------------------------|
B|---------------------------------------------------------------------------|
G|-6/9--\2/6------6/9--\2/6----6b7r6~~-(hold throughout pre verse)-----------|
D|-----------4--2-----------4—-----------------------------------------------|
A|---------------------------------------------------------------------------|
E|---------------------------------------------------------------------------|


pre verse | 2x

e|---------------------------------------------------------------------------|
B|----------------------0---0-----0--0---------------------------------------|
G|---1--1-----2—-2-----------------------------------------------------------|
D|-2---2--2-2---2---0-0---0---0-0---0--0-------------------------------------|
A|---------------------------------------------------------------------------|
E|---------------------------------------------------------------------------|



verse (acoustic) | 4x

e|---------------------------------------------------------------------------|
B|----------------------0---0-----0--0---------------------------------------|
G|---1--1-----2—-2-----------------------------------------------------------|
D|-2---2--2-2---2---0-0---0---0-0---0--0-------------------------------------|
A|---------------------------------------------------------------------------|
E|---------------------------------------------------------------------------|

chorus

  (guitar 1)

e|---------------------------------------------------------------------------|
B|---------------------------------------------------------------------------|
G|---------------------------------------------------------------------------|
D|-4/9-----------4/9---------------------------------------------------------|
A|-2/7\7/4-2-----2/7--\7\12--------------------------------------------------|
E|----\5/2—0----------\5\9---------------------------------------------------|
 |
 |
 |(guitar 2) - overdriven
 |
e|---------------------------------------------------------------------------|
B|---------------------------------------------------------------------------|
G|-6/9--\2/6------6/9--\2/6----6b7r6~~-(hold throughout pre verse)-----------|
D|-----------4--2-----------4—-----------------------------------------------|
A|---------------------------------------------------------------------------|
E|---------------------------------------------------------------------------|


bridge

e|---------------------------------------------------------------------------|
B|-9-9-9-9-9-9-9-9-10-10-10-10-10-10-10-10-----------------------------------|
G|-6-6-6-6-6-6-6-6-7-7--7--7--7--7--7--7—7-----------------------------------|
D|---------------------------------------------------------------------------|
A|---------------------------------------------------------------------------|
E|---------------------------------------------------------------------------|

                                                                            2x
e|---------------------------------------------------------------------------|
B|o-------------------------------------------------------------------------o|
G|---------------------------------------------------------------------------|
D|--9-9-9-9-9-9-9-9-11-11-11-11-11-11-11-11-6-6-6-6-6-6-6-6-7-7-7-7-7-7-7-7--|
A|o-7-7-7-7-7-7-7-7-9--9--9--9--9--9--9--9--4-4-4-4-4-4-4-4-5-5-5-5-5-5-5-5-o|
E|---------------------------------------------------------------------------|

e|---------------------------------------------------------------------------|
B|---------------------------------------------------------------------------|
G|---------------------------------------------------------------------------|
D|-9-9-9-9-9-9-9-9-----------------------------------------------------------|
A|-7-7-7-7-7-7-7-7-----------------------------------------------------------|
E|---------------------------------------------------------------------------|

e|-0-------------------------------------------------------------------------|
B|-2----5--------------------------------------------------------------------|
G|-2----4---------7----------------------------------------------------------|
D|-2----2----4----7----------------------------------------------------------|
A|-0---------4----5----------------------------------------------------------|
E|-----------2---------------------------------------------------------------|


outro | 2x

e|---------------------------------------------------------------------------|
B|----------------------0---0-----0--0---------------------------------------|
G|---1--1-----2—-2-----------------------------------------------------------|
D|-2---2--2-2---2---0-0---0---0-0---0--0-------------------------------------|
A|---------------------------------------------------------------------------|
E|---------------------------------------------------------------------------|


| /  slide up
| \  slide down
| h  hammer-on
| p  pull-off
| ~  vibrato
| +  harmonic
| x  Mute note
===============================================================================
            

comments powered by Disqus
↑ Back to top | Tenth Avenue North Tabs for Let It Go. Lyrics for acoustic guitar and electric guitar. Tablatures and chords are parodies/interpretations of the original songs. You may use it for private study, scholarship, research or language learning purposes only