» » »

Tenth Avenue North, Heart's Safe (A Better Way) Chords (ver.1)

Artists:  A B C D E F G H I J K L M N O P Q R S T U V W X Y Z # 

Heart's Safe (A Better Way) Chords (ver.1)

Tenth Avenue North Tabs
 Rating:
4/5 (4 votes)
Heart's Safe (A Better Way) lessons Tabs too difficult? Try these video lessons and learn fast
                
Tuning: Standard

Listen to the song and you will find the chord changes. The intro riff plays through 
of the song since its basically E C#m and A.

INTRO
e|--------------------------------------------------------------------------|
B|--------------------------------------------------------------------------|
G|---------------------------2-2-2------------------------------------------|
D|-2-2---4-4---6-7-6--666666-2-2-2------------------------------------------|
A|-2-2---2-2---2-2-2--444444-0-0-0------------------------------------------|
E|-0-0---0-0---0-0-0--------------------------------------------------------|

E C#m A
I feel it in your eyes
There's pain that covers up these lies
Now you may look like me
But it seems you're really different on the inside
We used to keep our hearts safe
We kept them safe and locked away
But then we grew up learning
That life could serve us in a better way

E
And why?
I'm asking you why?

E C#m A
So what happened to your eyes
I saw them wander just like mine
So how did we come to see so differently
After all this time

E
And why?
I'm asking you why?

E
And why?
I'm asking you why?

E
If the sheep know his voice then tell me what is the choice
For the ones who haven't heard and have no need to rejoice
Father, help me understand
'Cause I am just like him and Lord he's just like me
We came from the same town and the same families
But now he, he just won't understand
Please Lord open up his eyes
Can You open up these eyes?

E
And why?
I'm asking you why?


Riff during Chorus
e|-----12------------------------------14--16-------------------------------|
B|---12--12---RepeataBunchOfTimes-------------------------------------------|
G|-13-------------------AndThen----------13---------------------------------|
D|--------------------------------------------------------------------------|
A|--------------------------------------------------------------------------|
E|--------------------------------------------------------------------------|
            
Submit corrections

comments powered by Disqus
↑ Back to top | Tenth Avenue North Chords for Heart's Safe (A Better Way). Lyrics for acoustic guitar and electric guitar. Tablatures and chords are parodies/interpretations of the original songs. You may use it for private study, scholarship, research or language learning purposes only