>
 >
Tenhi

Tenhi Guitar Tabs

Tenhi - Tenhi chords, tabs, tablatures, lyrics

Guitar lessons | Add/correct | Request | Top 50 tabs Artists:  A B C D E F G H I J K L M N O P Q R S T U V W X Y Z 0-9

Tenhi Guitar Tabs – Tenhi

CD, Sheet music, Poster

Do you like Tenhi? Share with your friends now
TabsTabs v2
Tenhi-tenhi

This is only the second part of the song.

e|-------------------------------------------------------------------|
b|--------1--------------1--------------1-------------1--------------|
g|------1---1----------0---0----------1---1---------1---1------------|
d|----3-------3------3-------3------3-------3-----3-------3----------|
a|--3--------------3--------------3-------------3--------------------|
e|-------------------------------------------------------------------|

e|-------------------------------------------------3-----------------|
b|-------3-------------4-------------3-------------------------------|
g|-----0---0---------0---0---------0---0---------0---0---------------|
d|---0-------0-----0-------0-----0-------0-----0-------0-------------|
a|-------------------------------------------------------------------|
e|-3-------------3-------------3-------------3-----------------------|

e|---------------------4-------------3-------------------------------|
b|-------4-----------------------------------------------------------|
g|-----5---5---------5---5---------5---5-----------------------------|
d|---5-------5-----5-------5-----5-------5---------------------------|
a|-3-------------3-------------3-------------------------------------|
e|-------------------------------------------------------------------|

e|-------------------------------------------------------------------|
b|-------3--------------4--------------6--------------8--------------|
g|--------------------5---5----------7---7----------8---8------------|
d|-----5---5--------5-------5------7-------7------8-------8----------|
a|---5-------5----3--------------5--------------6--------------------|
e|-3-----------------------------------------------------------------|

e|-------------------------------------------------------------------|
b|---------9---------------8--------------6-------------4------------|
g|------10---10----------8---8----------7---7---------5---5----------|
d|---10---------10-----8-------8------7-------7-----5-------5--------|
a|-8-----------------6--------------5-------------3------------------|
e|-------------------------------------------------------------------|

e|-------------------------------------------------------------------|
b|-------3-------------4-------------8------------------9------------|
g|-------------------5---5---------8---8-------------10---10---------|
d|-----5---5-------5-------5-----8-------8--------10---------10------|
a|---5-------5---3-------------6-----------8----8---------------8----|
e|-3-----------------------------------------------------------------|

e|-----------------------7------8-------7-------------7-------7------|
b|-------6-------------8---8------8-------8---------8---8-----8------|
g|-----7---7---------7-------7------7-------7-----7-------7---7------|
d|---7-------7------------------------------------------------5------|
a|-5---------------5----------------------------5-------------5------|
e|-------------------------------------------------------------------|

Repeat this riff and the next one x2
e|-------------------------------------------------------------------| 
b|-------------------------------------------------------------------|  
g|---------8----------------7--------------5--------------5--------- |  
d|------10---10-----------8---8----------6---6----------6---6--------|
a|---10---------10------8-------8------6-------6------6-------6------|   
e|-8------------------6--------------4--------------4----------------|  

                                                                            
e|-------------------------------------------------------------------|      
b|-------------------------------------------------------------------|      
g|-------4-------------4---------------------------------------------|      
d|-----5---5---------5---5-------------------------------------------|      
a|---5-------5-----5-------5-----------------------------------------|      
e|-3-------------3---------------------------------------------------|      

e|--------------------------------------------------------------|
b|--------------------------------------------------------------|
g|-------0-------------0-------------0------------0-------------|
d|-----0---0---------0---0---------0---0--------0---0-----------|REPEAT x2
a|---5-------5-----5-------5-----5-------5----5-----------------|
e|-4-------------3-------------4------------6-------------------|

Have fun.





Comments


Popular Tenhi tabs & chords
Aatos Tabs
Kuolleesi Jokeen Tabs
NäKin Laulu Tabs
Rannalta Haettu Intro Tabs
Rannalta Haettu Intro 1 Tabs
Tenhi 1 Tabs
Vilja Intro Tabs
Vilja Intro 1 Tabs


Song lyrics



↑ Back to top | Tablatures and chords are parodies/interpretations of the original songs. You may use it for private study, scholarship, research or language learning purposes only
© 2014 AZChords.com Contact us | Privacy policy | DMCA | Add/correct tabs | Request tabs | Top 50 tabs