>
 >
Tenhi 1

Tenhi 1 Guitar Tabs

Tenhi - Tenhi 1 chords, tabs, tablatures, lyrics

Guitar lessons | Add/correct | Request | Top 50 tabs Artists:  A B C D E F G H I J K L M N O P Q R S T U V W X Y Z 0-9

Tenhi 1 Guitar Tabs – Tenhi

CD, Sheet music, Poster

Do you like Tenhi 1? Share with your friends now
TabsTabs v2
--------------------------------
Tenhi - Tenhi (Vare 2002)
--------------------------------

e|---------------------------------------------------------------------------|
B|---------1-----------1-----------1-----------1-----------3-----------4-----|
G|-------1---1-------0---0-------1---1-------1---1-------0---0-------0---0---|
D|-----3-------3---3-------3---3-------3---3-------3---0-------0---0-------0-|
A|---3-----------3-----------3-----------3-----------2-----------2-----------|
E|---------------------------------------------------------------------------|
	continued
e|--------------------3------------------------------------------------------|
B|---------3--------1---1----------------------------------------------------|
G|-------0---0----0-------0--------------------------------------------------|
D|----0-------0--------------------------------------------------------------|
A|---2----------2------------------------------------------------------------|
E|---------------------------------------------------------------------------|

e|---------------------4-----------3-----------------------------------------|
B|---------4---------3---3-------4---4---------3-----------4-----------6-----|
G|-------0---0-----0-------0---0-------0-----0---0-------0---0-------0---0---|
D|-----0-------0---------------------------0-------0---0-------0---0-------0-|
A|---3-----------3-----------3-----------2-----------3-----------5-----------|
E|---------------------------------------------------------------------------|
	continued
e|---------------------------------------------------------------------------|
B|--------8----------9-------------------------------------------------------|
G|------0---0------0---0-----------------------------------------------------|
D|----0-------0--0-------0---------------------------------------------------|
A|---6----------8------------------------------------------------------------|
E|---------------------------------------------------------------------------|

e|---------------------------------------------------------------------------|
B|---------8-----------6-----------4-----------3-----------4-----------8-----|
G|-------0---0-------0---0-------0---0-------0---0-------0---0-------0---0---|
D|-----0-------0---0-------0---0-------0---0-------0---0-------0---0-------0-|
A|---6-----------5-----------3-----------------------3-----------6-----------|
E|---------------------------------------3-----------------------------------|
	continued
e|---------------------------------------------------------------------------|
B|---------9-----------6-----------------------------------------------------|
G|-------0---0-------0---0---------------------------------------------------|
D|-----0-------0---0-------0-------------------------------------------------|
A|---8-----------5-----------------------------------------------------------|
E|---------------------------------------------------------------------------|

e|---------7-----8-----7-----------7-----7~----------------------------------|
B|-------6---6-----6-----6-------8---8---8~----------------4-----------3-----|
G|-----7-------7-----7-----7---7-------7-7~--------------0---0-------0---0---|
D|---0-----------------------0-------------------------0-------0---0-------0-|
A|---------------------------------------------------3-----------------------|
E|---------------------------------------------------------------6-----------|
	continued
e|---------------------------------------------------------------------------|
B|---------1-----------1-----------------------------------------------------|
G|-------0---0-------0---0---------------------------------------------------|
D|-----0-------0---0-------0-------------------------------------------------|
A|---------------------------------------------------------------------------|
E|---4-----------4-----------------------------------------------------------|

e|---------------------------------------------------------------------------|
B|---------------------------------4-----------3-----------1-----------1-----|
G|---------4-----------4---------0---0-------0---0-------0---0-------0---0---|
D|-------0---0-------0---0-----0-------0---0-------0---0-------0---0-------0-|
A|-----2-------2---2-------2-3-----------------------------------------------|
E|---3----------3------------------------6-----------4-----------4-----------|
	continued
e|---------------------------------------------------------------------------|
B|---------------------------------------------------------------------------|
G|--------4-----------4------------------------------------------------------|
D|------0---0-------0---0----------------------------------------------------|
A|----2-------2---2-------2--------------------------------------------------|
E|---3-----------3-----------------------------------------------------------|

e|---------------------------------------------------------------------------|
B|---------------------------------------------------------------------------|
G|---------0-----------0-----------0-----------0-----------0-----------0-----|
D|-------0---0-------0---0-------0---0-------0---0-------0---0-------0---0---|
A|-----3-------3---2-------2---3-------3---5-------5---3-------3---2-------2-|
E|---4-----------3-----------4-----------6-----------4-----------3-----------|
	continued
e|---------------------------------------------------------------------------|
B|---------------------------------------------------------------------------|
G|--------0-----------0~-----------------------------------------------------|
D|------0---0-------0--------------------------------------------------------|
A|----3-------3---5----------------------------------------------------------|
E|---4-----------6-----------------------------------------------------------|





Comments


Popular Tenhi tabs & chords
Aatos Tabs
Kuolleesi Jokeen Tabs
NäKin Laulu Tabs
Rannalta Haettu Intro Tabs
Rannalta Haettu Intro 1 Tabs
Tenhi Tabs
Vilja Intro Tabs
Vilja Intro 1 Tabs


Song lyrics



↑ Back to top | Tablatures and chords are parodies/interpretations of the original songs. You may use it for private study, scholarship, research or language learning purposes only
© 2014 AZChords.com Contact us | Privacy policy | DMCA | Add/correct tabs | Request tabs | Top 50 tabs