» » »

The Getaway Tabs (ver.2)

Artists:  A B C D E F G H I J K L M N O P Q R S T U V W X Y Z # 

The Getaway Tabs (ver.2)

Ten Foot Pole
Rating:
0/5 (0 votes)

Hard to play? Try these video lessons and learn fast.
                Intro
6------------------
5------------------
4------------------ Repeat X 6
3---6-xxx-4-7---
2---6-xxx-4-7---
1---4-xxx-2-5---

Verse 

6--------------------------------------------------------------------------------------------------
5--------------------------------------------------------------------------------------------------
4-9-99-9-99-9-99-9-99-6-66-6-66-----------------------------------------------------------
3-9-99-9-99-9-99-9-99-6-66-6-66-6-66-6-66-7-77-7-77-2-22-2-22-4-44-4-44-4-7—Rpt.3
2-7-77-7-77-6-66-6-66-4-44-4-44-6-66-6-66-7-77-7-77-2-22-2-22-4-44-4-44-4-7--
1----------------------------------------4-44-4-44-5-55-5-55-0-00-0-00-2-22-2-22-2-5—

Chorus

6---------------------
5---------------------
4---------------------
3-2----4----7----9—Rpt 2.
2-2----4----7----9--
1-0----2----5----7—

Repeat Verse HandMuted

Then before the Next chorus Play the Intro only twice. Then repeat chorus.

The Bass actually plays this part but you can play it on the guitar like this:

6-------------------------------------------
5-------------------------------------------
4-------------------------------------------
3-------------------------------------------
2-------------------------------------------
1-000000-2222222-444444-5555555

Then repeat Chorus and end on Em. 022.
            
Hard to play? Try these video lessons and learn fast. | Correct




comments powered by Disqus
↑ Back to top | Tablatures and chords are parodies/interpretations of the original songs. You may use it for private study, scholarship, research or language learning purposes only