» » »

The Getaway Tabs (ver.1)

Artists:  A B C D E F G H I J K L M N O P Q R S T U V W X Y Z # 

The Getaway Tabs (ver.1)

Ten Foot Pole
Rating:
0/5 (0 votes)

Tabs too difficult? Try these video lessons and learn fast.
                ------------------------------------------------------------------------------
------------------------------------------------------------------------------

Intro:
e|---------------|
B|---------------|
G|---------------|
D|--6xxxxxx-4-7--|
A|--6xxxxxx-4-7--|
E|--4xxxxxx-2-5--|

Verse: Palm Muted (except first time when played right after the intro)
e|-------------------------------------------------------|
B|-------------------------------------------------------|
G|-99999999-88888888-66666666----------------------------|
D|-99999999-88888888-66666666-99999999-7777777777777777--|
A|-77777777-66666666-44444444-99999999-7777777777777777--|
E|----------------------------77777777-5555555555555555--|

e|---------------------------|
B|---------------------------|
G|---------------------------|
D|-444444444444--7-9---------|
A|-444444444444--7-9---------|
E|-222222222222--5-7---------|

Chorus:
e|---------------------|
B|---------------------|
G|-----------2222-4444-|
D|-2222-4444-2222-4444-|do this 3 times...
A|-2222-4444-0000-2222-|
E|-0000-2222-----------|

...then
e|---------------------------------------|
B|---------------------------------------|
G|-2222222222222222-4444444444444444-----|
D|-2222222222222222-4444444444444444-----|
A|-0000000000000000-2222222222222222-----|
E|---------------------------------------|

Bridge1: Palm mute this chord a bunch of times
e|-----|
B|-----|
G|--9--|
D|--9--|
A|--7--|
E|-----|

Bridge2: Let chords ring  ( ...I always did things my own way...)
e|----------|
B|----------|
G|-9-8-6----|
D|-9-8-6-9--|
A|-7-6-4-9--|
E|-------7--|

Bridge3:  (...I Thought they were so full...)
e|---------------------------------------------|
B|---------------------------------------------|
G|----------99999999-1111111111111111----------|
D|-77777777-99999999-1111111111111111-77777777-|
A|-77777777-77777777--9-9-9-9-9-9-9-9-77777777-|
E|-55555555---------------------------55555555-|
            
Tabs too difficult? Try these video lessons and learn fast.




comments powered by Disqus
↑ Back to top | Tablatures and chords are parodies/interpretations of the original songs. You may use it for private study, scholarship, research or language learning purposes only